Green Day - 1000 Hours Chords & Tabs

 

1000 Hours Chords & Tabs

Green Day Chords & Tabs

Version: 3 Type: Bass Tab 0 ratings
1 star 2 stars 3 stars 4 stars 5 stars
comments

1000 Hours Bass Tab

   
Guitar Intro

Verse
G---------|---------|---------|---------|---------|---------|--------|
D---------|---------|---------|---------|---------|---------|--------|
A---------|---------|---------|---------|---------|---------|--------|
E-5-5-5-5-|-5-5-5-5-|-5-5-5-5-|-5-5-5-5-|-5-5-5-5-|-5-5-5-5-|-5-5-5-5|

G---------|---------|---------|---------|
D---------|---------|---------|---------|
A---------|---------|---------|---------|
E-5-5-5-5-|-5-5-5-5-|-5-5-5-5-|-5-5-5-5-|

Pre-Chorus
G---------------------|
D---------567-7-7-7-7-|
A---------------------|
E-5-5-5-5-------------|

Chorus
G-----------------|-----------------|-----------------|
D-----------------|-----------------|-----------------|
A-----------------|-----------------|-----------------|
E-2-2-2-2-3-3-3-3-|-2-2-2-2-3-3-3-3-|-2-2-2-2-3-3-3-3-|

G-----------------|
D-----------------|
A-----------------|
E-2-2-2-2-3-3-3-3-|

Verse
G---------|---------|---------|---------|---------|---------|--------|
D---------|---------|---------|---------|---------|---------|--------|
A---------|---------|---------|---------|---------|---------|--------|
E-5-5-5-5-|-5-5-5-5-|-5-5-5-5-|-5-5-5-5-|-5-5-5-5-|-5-5-5-5-|-5-5-5-5|

G---------|---------|---------|---------|
D---------|---------|---------|---------|
A---------|---------|---------|---------|
E-5-5-5-5-|-5-5-5-5-|-5-5-5-5-|-5-5-5-5-|

Pre-Chorus
G---------------------|
D---------567-7-7-7-7-|
A---------------------|
E-5-5-5-5-------------|

Rest for 16 beats

G---------|---------|---------|---------|
D---------|---------|---------|---------|
A---------|---------|---------|---------|
E-5-5-5-5-|-5-5-5-5-|-5-5-5-5-|-5-5-5-5-|
[ Tab from: http://www.guitartabs.cc/tabs/g/green_day/1000_hours_btab_ver_3.html ]
Chorus
G-----------------|-----------------|-----------------|
D-----------------|-----------------|-----------------|
A-----------------|-----------------|-----------------|
E-2-2-2-2-3-3-3-3-|-2-2-2-2-3-3-3-3-|-2-2-2-2-3-3-3-3-|

G-----------------|
D-----------------|
A-----------------|
E-2-2-2-2-3-3-3-3-|

G---------|---------|---------|---------|---------|---------|--------|
D---------|---------|---------|---------|---------|---------|--------|
A---------|---------|---------|---------|---------|---------|--------|           
E-5-5-5-5-|-5-5-5-5-|-5-5-5-5-|-5-5-5-5-|-5-5-5-5-|-5-5-5-5-|-5-5-5-5|

Pre-Chorus
G---------------------|
D---------567-7-7-7-7-|
A---------------------|
E-5-5-5-5-------------|


G---------|---------|---------|---------|---------|---------|--------|
D---------|---------|---------|---------|---------|---------|--------|
A---------|---------|---------|---------|---------|---------|--------|           
E-5-5-5-5-|-5-5-5-5-|-5-5-5-5-|-5-5-5-5-|-5-5-5-5-|-5-5-5-5-|-5-5-5-5|

Pre-Chorus
G---------------------|
D---------567-7-7-7-7-|
A---------------------|
E-5-5-5-5-------------|

G---------|---------|---------|---------|---------|---------|--------|
D-7-7-7-7-|-7-7-7-7-|-7-7-7-7-|-7-7-7-7-|-7-7-7-7-|-7-7-7-7-|-7-7-7-7|
A---------|---------|---------|---------|---------|---------|--------|
E---------|---------|---------|---------|---------|---------|--------|

G---------|---------|---------|--------5-777-75--|
D-7-7-7-7-|-7-7-7-7-|---------|------------------|
A---------|---------|7-5-4----|--4-5-7-----------|
E---------|---------|------5-5|------------------|

G---------|---------|------------|
D---------|-7-7-7-7-|---------7--|
A-7-5-4---|---------|------------|
E------5-5|---------|5-5--5-5----|
Comments