Green Day - 1000 Hours Chords & Tabs

 

1000 Hours Chords & Tabs

Green Day Chords & Tabs

Version: 1 Type: Bass Tab 0 ratings
1 star 2 stars 3 stars 4 stars 5 stars
comments

1000 Hours Bass Tab

INTRO

      rest       
G|-------------|-------------------|
D|-------------|--6-6-6-6-6-6-6-6--|
A|-------------|-------------------|
E|-------------|-------------------|

 VERSE
G|-----------------------------------------------|
D|------------------------------4-3h4/6-6-6-6-6--|
A|-----------------------------------------------|
E|--4-4-4-4-4-4-4-4-4-4-4-4-4-4------------------|


 CHORUS            4x
G|-----------------------|---------------|
D|-----------------------|---------------|
A|-----------------------|---------------|
E|--1-1-1-1-1-2-2-2-2-2--|--4-4-4-4-4-4--|

Then verse
Then intro
Then chorus
Then verse (no vocal)

Then chorus with a variation:
[ Tab from: http://www.guitartabs.cc/tabs/g/green_day/1000_hours_btab.html ]
           rest
G|-----------------------|---------------|
D|-----------------------|---------------|
A|-----------------------|---------------|
E|-----------------------|--4-4-4-4-4-4--|

 VERSE: NO BASS

  DURING GUITAR SOLO
G|---------------------------------------|
D|---------------------------------------|
A|---------------------------------------|
E|--4-4-4-4-4-4-4-4-4-4-4-4-4-4-4-4-4-4--|

G|-----------------------------------------------|
D|--6-6-4-4-3-3----------------------------------|
A|--------------6-6-4-4-3-3-4-4-6-6-4-4-3-3------|
E|------------------------------------------4-4--|

G|-----------------------------|
D|--------------3-3-4-4-3h4/6--|
A|--3-3-4-4-6-6----------------|
E|-----------------------------|

  OUTRO
G|---------------------------------------|
D|---------------------------------------|
A|---------------------------------------|
E|--4-4-4-4-4-4-4-4-4-4-4-4-4-4-4~~~~~~--|
Comments