Greeley Estates - Outside Of This Chords & Tabs

 

Outside Of This Chords & Tabs

Greeley Estates Chords & Tabs

Version: 6 Type: Tab

Outside Of This Tab

Band: Greeley Estates
Song: Outside of This
Tuning: Drop D

(Intro)(gtr 1)
|-0-0-0-0-0-0-0-0--1-1-1-1--0-0-0-0-0-0-0-0--1-1-1-1--0-0-0-0-0-0-0-0-----|
|-3-3-3-3-3-3-3-3--3-3-3-3--3-3-3-3-3-3-3-3--3-3-3-3--3-3-3-3-3-3-3-3-----|
|-2-2-2-2-2-2-2-2--2-2-2-2--2-2-2-2-2-2-2-2--2-2-2-2--2-2-2-2-2-2-2-2-----|
|-------------------------------------------------------------------------|
|-------------------------------------------------------------------------|
|-------------------------------------------------------------------------|

-1-1-1-1--0-0-0-0-0-0--5-5-5-5-5-5---|
-3-3-3-3--3-3-3-3-3-3--3-3-3-3-3-3---|
-2-2-2-2--2-2-2-2-2-2--2-2-2-2-2-2---|
-------------------------------------|
-------------------------------------|
-------------------------------------|

(Whole Song)(gtr1&2)
|-----------------------------------------------------|
|-----------------------------------------------------|
|-----------------------------------------------------|
|-0-0-0-7h8-8--0-0-0-7h8-8--0-0-0-7h8-8--3-3-3-2-2-2--|
|-0-0-0-7h8-8--0-0-0-7h8-8--0-0-0-7h8-8--3-3-3-2-2-2--|
|-0-0-0-7h8-8--0-0-0-7h8-8--0-0-0-7h8-8--3-3-3-2-2-2--|


|-----------------------------------------------------|
|-----------------------------------------------------|
|-0-0-0-7h8-8--0-0-0-7h8-8--0-0-0-7h8-8--3-3-3-2-2-2--|
|-0-0-0-7h8-8--0-0-0-7h8-8--0-0-0-7h8-8--3-3-3-2-2-2--|
|-0-0-0-7h8-8--0-0-0-7h8-8--0-0-0-7h8-8--3-3-3-2-2-2--|

|-------1p0--------1p0--------1p0---3-3p1p0-----------|
|----------2----------2----------2----------3-3p1p0---|
|-----------------------------------------------------|
|-0-0-0------0-0-0------0-0-0-------------------------|
|-0-0-0------0-0-0------0-0-0-------------------------|
|-0-0-0------0-0-0------0-0-0-------------------------|

|-------1p0--------1p0--------1p0---------------------|
|----------2----------2----------2--------------------|
|-----------------------------------------------------|
|-5-5-5------5-5-5------5-5-5-------3-3-3-2-2-2-------|
|-3-3-3------3-3-3------3-3-3-------3-3-3-2-2-2-------|
|-----------------------------------3-3-3-2-2-2-------|

|-------1p0--------1p0--------1p0---3-3p1p0-----------|
|----------2----------2----------2----------3-3p1p0---|
|-----------------------------------------------------|
|-0-0-0------0-0-0------0-0-0-------------------------|
|-0-0-0------0-0-0------0-0-0-------------------------|
|-0-0-0------0-0-0------0-0-0-------------------------|

|-------1p0--------1p0--------1p0---------------------|
|----------2----------2----------2--------------------|
|-----------------------------------------------------|
|-5-5-5------5-5-5------5-5-5-------3-3-3-2-2-2-------|
|-3-3-3------3-3-3------3-3-3-------3-3-3-2-2-2-------|
|-----------------------------------3-3-3-2-2-2-------|

|-----------------------------------------------------|
|-----------------------------------------------------|
|-----------------------------------------------------|
|-0-0-0-0-0-0-0-0-0--3-3-3-3-3-3/5--3-2-0-------------|
|-0-0-0-0-0-0-0-0-0--1-1-1-1-1-1/3--3-2-0-------------|
|-0-0-0-0-0-0-0-0-0-----------------3-2-0-------------|

|-----------------------------------------------------|
|-----------------------------------------------------|
|-----------------------------------------------------|
|-0-0-0-0-0-0-0-0-0--3-3-3-3-3-3/5--3-2-0-------------|
|-0-0-0-0-0-0-0-0-0--1-1-1-1-1-1/3--3-2-0-------------|
|-0-0-0-0-0-0-0-0-0-----------------3-2-0-------------|

|-------1p0--------1p0--------1p0---3-3p1p0-----------|
|----------2----------2----------2----------3-3p1p0---|
|-----------------------------------------------------|
|-0-0-0------0-0-0------0-0-0-------------------------|
|-0-0-0------0-0-0------0-0-0-------------------------|
|-0-0-0------0-0-0------0-0-0-------------------------|

|-------1p0--------1p0--------1p0---------------------|
|----------2----------2----------2--------------------|
|-----------------------------------------------------|
|-5-5-5------5-5-5------5-5-5-------3-3-3-2-2-2-------|
|-3-3-3------3-3-3------3-3-3-------3-3-3-2-2-2-------|
|-----------------------------------3-3-3-2-2-2-------|

|-------1p0--------1p0--------1p0---3-3p1p0-----------|
|----------2----------2----------2----------3-3p1p0---|
|-----------------------------------------------------|
|-0-0-0------0-0-0------0-0-0-------------------------|
|-0-0-0------0-0-0------0-0-0-------------------------|
|-0-0-0------0-0-0------0-0-0-------------------------|
[ Tab from: http://www.guitartabs.cc/tabs/g/greeley_estates/outside_of_this_tab_ver_6.html ]
|-------1p0--------1p0--------1p0---------------------|
|----------2----------2----------2--------------------|
|-----------------------------------------------------|
|-5-5-5------5-5-5------5-5-5-------3-3-3-2-2-2-------|
|-3-3-3------3-3-3------3-3-3-------3-3-3-2-2-2-------|
|-----------------------------------3-3-3-2-2-2-------|

|-----------------------------------------------------|
|-----------------------------------------------------|
|-----------------------------------------------------|
|-0-0-0-0-0-0-0-0-0--3-3-3-3-3-3/5--3-2-0-------------|
|-0-0-0-0-0-0-0-0-0--1-1-1-1-1-1/3--3-2-0-------------|
|-0-0-0-0-0-0-0-0-0-----------------3-2-0-------------|

|-----------------------------------------------------|
|-----------------------------------------------------|
|-----------------------------------------------------|
|-0-0-0-0-0-0-0-0-0--3-3-3-3-3-3/5--3-2-0-------------|
|-0-0-0-0-0-0-0-0-0--1-1-1-1-1-1/3--3-2-0-------------|
|-0-0-0-0-0-0-0-0-0-----------------3-2-0-------------|

|-----------------------------------------------------|
|-----------------------------------------------------|
|--------------------------------8-8-8-8-8------------|
|-0-0-0-0--0-0-0-0--0-0-0-0-0-0--8-8-8-8-8------------|
|-0-0-0-0--0-0-0-0--0-0-0-0-0-0--6-6-6-6-6------------|
|-0-0-0-0--0-0-0-0--0-0-0-0-0-0-----------------------|

|-----------------------------------------------------|
|-----------------------------------------------------|
|--------------------------------8-8-8-8-8------------|
|-0-0-0-0--0-0-0-0--0-0-0-0-0-0--8-8-8-8-8------------|
|-0-0-0-0--0-0-0-0--0-0-0-0-0-0--6-6-6-6-6------------|
|-0-0-0-0--0-0-0-0--0-0-0-0-0-0-----------------------|

|-----------------------------------------------------|
|-----------------------------------------------------|
|------------------------------------------------8-8-8|
|-0-0-0-0--8-7-7--0-0-0-0--8-7-7--0-0-0-0--8-7-7-8-8-8|
|-0-0-0-0--6-5-5--0-0-0-0--6-5-5--0-0-0-0--6-5-5-6-6-6|
|-0-0-0-0---------0-0-0-0---------0-0-0-0-------------|

|-----------------------------------------------------|
|-----------------------------------------------------|
|------------------------------------------------8-8-8|
|-0-0-0-0--8-7-7--0-0-0-0--8-7-7--0-0-0-0--8-7-7-8-8-8|
|-0-0-0-0--6-5-5--0-0-0-0--6-5-5--0-0-0-0--6-5-5-6-6-6|
|-0-0-0-0---------0-0-0-0---------0-0-0-0-------------|

|-0-0-0-0-0-0-0-0--1-1-1-1--0-0-0-0-0-0-0-0--1-1-1-1--0-0-0-0-0-0-0-0-----|
|-3-3-3-3-3-3-3-3--3-3-3-3--3-3-3-3-3-3-3-3--3-3-3-3--3-3-3-3-3-3-3-3-----|
|-2-2-2-2-2-2-2-2--2-2-2-2--2-2-2-2-2-2-2-2--2-2-2-2--2-2-2-2-2-2-2-2-----|
|-------------------------------------------------------------------------|
|-------------------------------------------------------------------------|
|-------------------------------------------------------------------------|

-1-1-1-1--0-0-0-0-0-0--5-5-5-5-5-5---|
-3-3-3-3--3-3-3-3-3-3--3-3-3-3-3-3---|
-2-2-2-2--2-2-2-2-2-2--2-2-2-2-2-2---|
-------------------------------------|
-------------------------------------|
-------------------------------------|

|-----------------------------------------------------|
|-----------------------------------------------------|
|-----------------------------------------------------|
|-0-0-0-0-0-0-0-0-0--3-3-3-3-3-3/5--3-2-0-------------|
|-0-0-0-0-0-0-0-0-0--1-1-1-1-1-1/3--3-2-0-------------|
|-0-0-0-0-0-0-0-0-0-----------------3-2-0-------------|

|-----------------------------------------------------|
|-----------------------------------------------------|
|-----------------------------------------------------|
|-0-0-0-0-0-0-0-0-0--3-3-3-3-3-3/5--3-2-0-------------|
|-0-0-0-0-0-0-0-0-0--1-1-1-1-1-1/3--3-2-0-------------|
|-0-0-0-0-0-0-0-0-0-----------------3-2-0-------------|

|-----------------------------------------------------|
|-----------------------------------------------------|
|-----------------------------------------------------|
|-0-0-0-0-0-0-0-0-0--3-3-3-3-3-3/5--3-2-0-------------|
|-0-0-0-0-0-0-0-0-0--1-1-1-1-1-1/3--3-2-0-------------|
|-0-0-0-0-0-0-0-0-0-----------------3-2-0-------------|

|-----------------------------------------------------|
|-----------------------------------------------------|
|-----------------------------------------------------|
|-0-0-0-0-0-0-0-0-0--3-3-3-3-3-3/5--3-2-0-------------|
|-0-0-0-0-0-0-0-0-0--1-1-1-1-1-1/3--3-2-0-------------|
|-0-0-0-0-0-0-0-0-0-----------------3-2-0-------------|

|-----------------------------------------------------|
|-----------------------------------------------------|
|-----------------------------------------------------|
|-0-0-0-7h8-8--0-0-0-7h8-8--0-0-0-7h8-8--3-3-3-2-2-2--|
|-0-0-0-7h8-8--0-0-0-7h8-8--0-0-0-7h8-8--3-3-3-2-2-2--|
|-0-0-0-7h8-8--0-0-0-7h8-8--0-0-0-7h8-8--3-3-3-2-2-2--|


|-----------------------------------------------------|
|-----------------------------------------------------|
|-0-0-0-7h8-8--0-0-0-7h8-8--0-0-0-7h8-8--3-3-3-2-2-2--|
|-0-0-0-7h8-8--0-0-0-7h8-8--0-0-0-7h8-8--3-3-3-2-2-2--|
|-0-0-0-7h8-8--0-0-0-7h8-8--0-0-0-7h8-8--3-3-3-2-2-2--|

                      --- END ---