Greeley Estates - Outside Of This Chords & Tabs

 

Outside Of This Chords & Tabs

Greeley Estates Chords & Tabs

Version: 4 Type: Tab

Outside Of This Tab

   
INTRO

e|----------------------------|
b|----------------------------|
g|9-99999-99999-9999-10-10-10-|
d|0-00000-00000-0000--0--0--0-|  (3x)
a|----------------------------|
d|----------------------------|
(4th x)
g|12-12-12-|
d|-0--0--0-|

e|--------------------------------------|
b|--------------------------------------|
g|--------------------------------------|
d|0-000-7-88(3x)-3-333-2-222(2x in all)-|
a|0-000-7-88-----3-333-3-333------------|
d|0-000-7-88-----3-333-2-222------------|

VERSE
[ Tab from: http://www.guitartabs.cc/tabs/g/greeley_estates/outside_of_this_tab_ver_4.html ]
e|---------------------(play all 2x)-------------------------|
b|-----------------------------------------------------------|
g|-----9-10-9-5-----12-10-9-10-5-7------9-10-9-5-------------|
d|0-00---------(3x)----------------0-00----------3-333-2-222-|
a|0-00-----------------------------0-00----------3-333-3-333-|
d|0-00-----------------------------0-00----------3-333-2-222-|

CHORUS

e|----------------------------------------------------|
b|----------------------------------------------------|
g|----------------------------------------------------|
d|0-00000-00000-00000-0000-7-77777-7777-3-3333-2-2222-|
a|0-00000-00000-00000-0000-7-77777-7777-3-3333-3-3333-|
d|0-00000-00000-00000-0000-7-77777-7777-3-3333-2-2222-|


VERSE
CHORUS

BRIDGE

e|-------------0-0-0-0-0-0-|
b|-------------0-0-0-0-0-0-|
g|--------(3x)-8-8-8-8-8-8-|
d|00-0000------0-0-0-0-0-0-|     (2x)
a|00-0000------------------|
d|00-0000------------------|

INTRO
CHORUS
DONE