Great Big Sea - Run Runaway Chords & Tabs

 

Run Runaway Chords & Tabs

Great Big Sea Chords & Tabs

Version: 1 Type: Tab 0 ratings
1 star 2 stars 3 stars 4 stars 5 stars
comments

Run Runaway Tab

   
Run Runaway - Great Big Sea

Tabbed by Adam Bishop

D - xx0232
G - 320033
A - x02220

The riffs are, as usual, played by a flute or a violin, or both.

Intro:
   D         G                D           G
E|-----------------------------------------------
B|-----------------------------------------------
G|-7---7/14--12--12--12-11-9--7-7---7/14--12--12-
D|-----------------------------------------------
A|-----------------------------------------------
E|-----------------------------------------------
                                            1, 2, 3, 4!

D  G  D    G  A  D (with riff 1)

Riff 1:
E|---------------10-10--10p7----------------------------
B|------7-10-10--------------10-10-------7-10-10--7-----
G|-7--9-----------------------------7--9------------9-7-
D|------------------------------------------------------
A|------------------------------------------------------
E|------------------------------------------------------

D
I like black and white
G        D
Dream in black and white

You like black and white
G   A   D
Run run away

(Chorus)
See chameleon
Lying there in the sun
All things to everyone
Run run away, hey

Riff 1
[ Tab from: http://www.guitartabs.cc/tabs/g/great_big_sea/run_runaway_tab.html ]
If you're in the swing
Money ain't everything
If you're in the swing
Run run away

Chorus

Riff 1

Riff 2:
E|-10-----7-----------------7--------10-10----7--------------
B|-----10---10-10--7-10--10---10-10--------10---10-10--7-----
G|-------------------------------------------------------9-7-
D|-----------------------------------------------------------
A|-----------------------------------------------------------
E|-----------------------------------------------------------

If you got it sauced (?)
Don't beat around the bush
If you got it sauced (?)
Run run away

Chorus (x2)

Solo: (x4) (It's not exactly the same all 4 times though)
E|------------------------------------------------------------
B|--------------12--12--12h14h12-12-10h12p10-10--10--------15-
G|-12--12h14p12-------------------------------------11-12-----
D|------------------------------------------------------------
A|------------------------------------------------------------
E|------------------------------------------------------------

Repeat intro

(With Riff 1)
Oh now can't you wait
No no come on and wait
Oh now can't you wait
Run run away

Chorus (with Riff 2)

Repeat first verse

Chorus (with Riff 2) (x2)

Fade out with Riff 1 (there is also another riff playing that I can't 
figure out)

http://www.angelfire.com/mi/Grenfell/index.html
Comments