Great Big Sea - Fast As I Can Chords & Tabs

 

Fast As I Can Chords & Tabs

Great Big Sea Chords & Tabs

Version: 1 Type: Tab 0 ratings
1 star 2 stars 3 stars 4 stars 5 stars
comments

Fast As I Can Tab

   
"Fast as I Can"
Great Big Sea
tabbed by: Scott Etchegary 

Guitar 1 (Alan Doyle; Capo 1)
Guitar 2 (Sean McCann; Capo 3)

All chords and tablature are relative to capo positions.

Tablature for Guitar 1
======================
Intro:
   E5                     Asus2    Bsus4
E|----0-0-0------0-0-0----------0--------0--|
B|----0-0-0------0-0-0--------0-0------0-0--|  Play this twice
G|----9-8-9------9-8-9------2--------4------|   
D|-9--9-9------9-9-9------2--------4--------|  
A|-7-----------7----------0--------2--------|
E|------------------------------------------|

Verse:

   E5                     Asus2   Bsus4     
E|----0-0-0------0-0-0---------0---------0--| 
B|----0-0-0------0-0-0-------0---------0----|   Play this twice
G|----9-8-9------9-8-9---------------4------| 
D|-9--9-9------9-9-9------2-------4---------|       Then...
A|-7-----------7----------0-------2---------|
E|------------------------------------------|

   Asus2     Bsus4     Asus2     Bsus4      
E|------0-----------0-------0---------0--|
B|----0-----------0-------0-----------0--|
G|--------------4-------------------4----|
D|-2---------4---------2---------4-------|
A|-0---------2---------0---------2-------|
E|---------------------------------------|

Chorus:
   Asus2    E        Bsus4    C#m7         Asus2    E       Bsus4
E|-0--0--0--0--0--0--0--0--0--0--0--0--0---0--0--0--0--0--0--0------0--|
B|-0--0--0--0--0--0--0--0--0--0--0--0--0---0--0--0--0--0--0--0----0----|
G|-2--2--2--1--1--1--4--4--4--6--6--6--6---2--2--2--1--1--1--4--4------|
D|-2--2--2--2--2--2--4--4--4--6--6--6--6---2--2--2--2--2--2--4---------|
A|-0--0--0--2--2--2--2--2--2--4--4--4--4---0--0--0--2--2--2--2---------|
E|----------0--0--0---------------------------------0--0--0------------|

   Asus2    E        Bsus4    C#m7         Asus2    E        Bsus4 
E|-0--0--0--0--0--0--0--0--0--0--0--0--0---0--0--0--0--0--0--0--0--0--|
B|-0--0--0--0--0--0--0--0--0--0--0--0--0---0--0--0--0--0--0--0--0--0--|
G|-2--2--2--1--1--1--4--4--4--6--6--6--6---2--2--2--1--1--1--4--4--4--|
D|-2--2--2--2--2--2--4--4--4--6--6--6--6---2--2--2--2--2--2--4--4--4--|
A|-0--0--0--2--2--2--2--2--2--4--4--4--4---0--0--0--2--2--2--2--2--2--|
E|----------0--0--0---------------------------------0--0--0-----------|

   E         Asus2    E        Bsus4    E5*
E|-0--0--0---0--0--0--0--0--0--0--0--0--0--|
B|-0--0--0---0--0--0--0--0--0--0--0--0--0--|  *Note: On the second last 
G|-1--1--1---2--2--2--1--1--1--4--4--4--9--|         chorus this is played
D|-2--2--2---2--2--2--2--2--2--4--4--4--9--|         as a regular E chord.
A|-2--2--2---0--0--0--2--2--2--2--2--2--7--|
E|-0--0--0------------0--0--0--------------|
[ Tab from: http://www.guitartabs.cc/tabs/g/great_big_sea/fast_as_i_can_tab.html ]
Interlude:
   E5                     Asus2    Bsus4
E|----0-0-0------0-0-0---------0----------0--|
B|----0-0-0------0-0-0-------0----------0----|  Play this twice
G|----9-8-9------9-8-9----------------4------|   
D|-9--9-9------9-9-9------2--------4---------|  
A|-7-----------7----------0--------2---------|
E|-------------------------------------------|

Bridge:
   Asus2     Bsus4     Asus2     Bsus4  Esus4 F#m   G#m   C#m   
E|------0---------0---------0--------0--0-0-0-2-2-2-4-4-4-4-4-4-|
B|----0------------------0--------------0-0-0-2-2-2-4-4-4-5-5-5-|
G|--------------4------------------4----2-2-2-2-2-2-4-4-4-6-6-6-|
D|-2---------4--------2---------4-------2-2-2-4-4-4-6-6-6-6-6-6-|
A|-0---------2--------0---------2-------2-2-2-4-4-4-6-6-6-4-4-4-|
E|--------------------------------------0-0-0-2-2-2-4-4-4-------|

   F#m     Bsus4
E|-2----0---------0--|
B|-2--0---------0----|
G|-2-------4--4------|
D|-4-------4---------|
A|-4-------2---------|
E|-2-----------------|


Chords for Guitar 2
===================
Intro: D-D-G-A D-D-G-A

D
From the first hello you gave to me,
           G                 A
I've done nothin' else but smile,
       D
And I know you're in a hurry, 
        G                   A
Ah, but it's gonna take a while.
    G                    A
So forgive me if we go slow,
              G                           A
But there's something I think you should know.

           G         D
I'm goin' fast as I can, 
        A             Bm
Please don't make me rush,
               G         D       A
This feelin's comin' on way too fast.
              G            D                 A      Bm
I'll tell you all of the things that you'll never forget,
             G        D      A         D
But I'm not ready to say "I love you" yet.
         G        D      A         D
I'm not ready to say "I love you" yet.

(Interlude)
D-D-G-A D-D-G-A

So, don't push me in too deep, 
I've always been the fool who rushes in,
I know you've got to take the pieces one by one,
'Fore you've got everything.
So forgive me if we take time,
But there's something that's been on my mind.

(Repeat Chorus)

(Repeat Interlude)

(Bridge)
                G                 A
Oh, they'll be times when I'm mistaken,
                G                      A
And they'll be times when we're gonna fight,
             G        A       F#m         Bm
Ah, but you needn't doubt, we can work it out,
        Em                A
And in time we'll get it right.  Oh.

(Repeat Interlude)

     G                  A
So forgive me if we go slow,
             G                            A
But there's something I think you should know.

(Repeat Chorus Twice)

(Repeat Interlude; w/vocal ad libs)
Comments