Gray Matter - Burn No Bridges Chords & Tabs

 

Burn No Bridges Chords & Tabs

Gray Matter Chords & Tabs

Version: 2 Type: Tab 0 ratings
1 star 2 stars 3 stars 4 stars 5 stars
comments

Burn No Bridges Tab

   
  
    Tabber: ConnoR GeNt.
 
     e-------------------|
     B-------------------|
     G-------------------|
     D-----------555-44--|x7
     A-222-444-2--------4|
     E-------------------|

     e---------------------------------------|
     B---------------------------------------|
     G---------------------------------------|
     D---------------------------------------|
     A-22222222-44444444-77777/101010-9999999|
     E-00000000-22222222-55555/88888--7777777|
 (in the backround)
     e-----------|
     B-----------|
     G-----------|
     D--555-44444|
     A-----------|
     E-----------|

     e---------------------------------------|
     B---------------------------------------|
     G---------------------------------------|
     D---------------------------------------|
     A-22222222-44444444-77777/101010-9999999|
     E-00000000-22222222-55555/88888--7777777|
 (in the backround)
     e-----------|
     B-----------|
     G-----------|
     D--555-44444|
     A-----------|
     E-----------|

     e-------------------|
     B-------------------|
     G-------------------|
     D-----------555-44--|x7
     A-222-444-2--------4|
     E-------------------|
[ Tab from: http://www.guitartabs.cc/tabs/g/gray_matter/burn_no_bridges_tab_ver_2.html ]
     e---------------------------------------|
     B---------------------------------------|
     G---------------------------------------|
     D---------------------------------------|
     A-22222222-44444444-77777/101010-9999999|
     E-00000000-22222222-55555/88888--7777777|
 (in the backround)
     e-----------|
     B-----------|
     G-----------|
     D--555-44444|
     A-----------|
     E-----------|

     e---------------------------------------|
     B---------------------------------------|
     G---------------------------------------|
     D---------------------------------------|
     A-22222222-44444444-77777/101010-9999999|
     E-00000000-22222222-55555/88888--7777777|
 (in the backround)
     e-----------|
     B-----------|
     G-----------|
     D--555-44444|
     A-----------|
     E-----------|

   solo thingyyyyyy




     e---------------------------------------|
     B---------------------------------------|
     G---------------------------------------|
     D---------------------------------------|
     A-22222222-44444444-77777/101010-9999999|
     E-00000000-22222222-55555/88888--7777777|
 (in the backround)
     e-----------|
     B-----------|
     G-----------|
     D--555-44444|
     A-----------|
     E-----------|

     e---------------------------------------|
     B---------------------------------------|
     G---------------------------------------|
     D---------------------------------------|
     A-22222222-44444444-77777/101010-9999999|
     E-00000000-22222222-55555/88888--7777777|
 (in the backround)
     e-----------|
     B-----------|
     G-----------|
     D--555-44444|
     A-----------|
     E-----------|

     e-------------------|
     B-------------------|
     G-------------------|
     D-----------555-44--|x7
     A-222-444-2--------4|
     E-------------------|

      e-------------------|
     B-------------------|
     G-------------------|
     D-----------555-44--|x7
     A-222-444-2--------4|
     E-------------------|
Comments