Gray David - Tell Me More Lies Chords & Tabs

 

Tell Me More Lies Chords & Tabs

Gray David Chords & Tabs

Version: 1 Type: Chords 0 ratings
1 star 2 stars 3 stars 4 stars 5 stars
comments

Tell Me More Lies Chords

   
----------------------------------PLEASE NOTE---------------------------------#
#This file is the author's own work and represents their interpretation of the #
#Song. You may only use this file for private study, scholarship, or research. #
#------------------------------------------------------------------------------#

Band \ Artist:David Gray
Album: ‘White Ladder’
Song:‘Tell me more lies’
[ Tab from: http://www.guitartabs.cc/tabs/g/gray_david/tell_me_more_lies_crd.html ]
---Normal tuning: EADGBE---
[CHORD FORMATIONS]
    
     [G]    [Bb6]   [C*1]   [A7]    [A#add11]   [Dsus2]
e |---3---|---7---|---8---|---5---|-----0-----|----5----|
B |---3---|---7---|---8---|---5---|-----6-----|----5----|
G |---0---|---0---|---0---|---0---|-----7-----|----7----|
D |---X---|---X---|---X---|---X---|-----X-----|----7----|
A |---2---|---6---|---7---|---4---|-----5-----|----5----|
E |---3---|---7---|---8---|---5---|-----6-----|----X----|

     [G6]   [Dadd11]    [F6]     [C*2]    [G#]    [F]     [A#]
e |---0---|----10----|---10---|----8---|---4---|---1---|---6---|
B |---3---|----10----|---10---|----8---|---4---|---1---|---6---|
G |---4---|-----0----|---10---|----9---|---5---|---2---|---7---|
D |---X---|-----X----|---10---|---10---|---6---|---3---|---8---|
A |---2---|-----9----|----8---|---10---|---6---|---3---|---8---|
E |---3---|----10----|----X---|----8---|---4---|---1---|---6---|
------
[LYRICS]
Comments