Gray David - Babylon Chords & Tabs

 

Babylon Chords & Tabs

Gray David Chords & Tabs

Version: 1 Type: Tab 0 ratings
1 star 2 stars 3 stars 4 stars 5 stars
comments

Babylon Tab

   
Author/Artist: David Gray
Title: Babylon
Album: White Ladder
Transcribed by: dongivafuc
Email: really_cool_name@hotmail.com

Don't really listen all that much to David Gray but this 
song really is pretty good. My tab is from watching him at
'T In The Park' and it just sounds great to
play, make sure to listen to the CD to get the rythm. 
The song requires a capo on first. Strumming can be quiet 
difficult to get the hang of. EMail any suggestions.

Thanx,

Chords

D          G         A        EMinor      F



-2---------3------------------------------1-----------------------------------
-3-------------------2--------------------1-----------------------------------
-2-------------------2--------------------2-----------------------------------
---------------------2---------2----------3-----------------------------------
-----------2-------------------2----------3-----------------------------------
-----------3------------------------------1-----------------------------------
 Intro Capo on 1st Fast strumming                                             

-2-2-2-2-2-2-2-2-------------------------------------------------|------------
-3-3-3-3-3-3-3-3-2-2-2-2-2-2-2-2-----------------2-2-2-2-2-2-2-2-|------------
-2-2-2-2-2-2-2-2-2-2-2-2-2-2-2-2-----------------2-2-2-2-2-2-2-2-|-x2---------
-----------------2-2-2-2-2-2-2-2-2-2-2-2-2-2-2-2-2-2-2-2-2-2-2-2-|------------
---------------------------------2-2-2-2-2-2-2-2-----------------|------------
-----------------------------------------------------------------|------------
 Verse is also played fast and length of the verse varies                     

-2-2-2-2-2-2-2-2-3-3-3-3-3-3-3-3-2-2-2-2-2-2-2-2-3-3-3-3-3-3-3-3-|------------
-3-3-3-3-3-3-3-3-----------------3-3-3-3-3-3-3-3-----------------|------------
-2-2-2-2-2-2-2-2-----------------2-2-2-2-2-2-2-2-----------------|-x8---------
-----------------------------------------------------------------|------------
-----------------2-2-2-2-2-2-2-2-----------------2-2-2-2-2-2-2-2-|------------
-----------------3-3-3-3-3-3-3-3-----------------3-3-3-3-3-3-3-3-|------------
 Chorus       If you want it come and get it, cryin' out loud                 

-2-2-2-2-2-2-2-2---------------------------------1-1-1-1-1-1-1-1-2-2-2-2-2-2--
-3-3-3-3-3-3-3-3-2-2-2-2-2-2-2-2-----------------1-1-1-1-1-1-1-1-3-3-3-3-3-3--
-2-2-2-2-2-2-2-2-2-2-2-2-2-2-2-2-----------------2-2-2-2-2-2-2-2-2-2-2-2-2-2--
-----------------2-2-2-2-2-2-2-2-2-2-2-2-2-2-2-2-3-3-3-3-3-3-3-3--------------
---------------------------------2-2-2-2-2-2-2-2-3-3-3-3-3-3-3-3--------------
-------------------------------------------------1-1-1-1-1-1-1-1--------------
              The love that I was giving you was never in doubt               
[ Tab from: http://www.guitartabs.cc/tabs/g/gray_david/babylon_tab.html ]
-2-2----------------------------------3-3-3-3-3-3-3-3-2-2-2-2-2-2-2-2---------
-3-3--2-2-2-2-2-2-2-2---------------------------------3-3-3-3-3-3-3-3-2-2-2---
-2-2--2-2-2-2-2-2-2-2---------------------------------2-2-2-2-2-2-2-2-2-2-2---
------2-2-2-2-2-2-2-2-2-2-2-2-2-2-2-2---------------------------------2-2-2---
----------------------2-2-2-2-2-2-2-2-2-2-2-2-2-2-2-2-------------------------
--------------------------------------3-3-3-3-3-3-3-3-------------------------
              Let go your heart let go your head and feel it now              

-------------------------------------------2-2-2-2-2-2-2-2--------------------
-2-2-2-2-2-----------------2-2-2-2-2-2-2-2-3-3-3-3-3-3-3-3-2-2-2-2-2-2-2-2----
-2-2-2-2-2-----------------2-2-2-2-2-2-2-2-2-2-2-2-2-2-2-2-2-2-2-2-2-2-2-2----
-2-2-2-2-2-2-2-2-2-2-2-2-2-2-2-2-2-2-2-2-2-----------------2-2-2-2-2-2-2-2----
-----------2-2-2-2-2-2-2-2----------------------------------------------------
------------------------------------------------------------------------------
              Let go your heart let go your head and feel it now              

---------------------------------2-2-2-2-2-2-2-2------------------------------
-----------------2-2-2-2-2-2-2-2-3-3-3-3-3-3-3-3------------------------------
-----------------2-2-2-2-2-2-2-2-2-2-2-2-2-2-2-2------------------------------
-2-2-2-2-2-2-2-2-2-2-2-2-2-2-2-2----------------------------------------------
-2-2-2-2-2-2-2-2--------------------------------------------------------------
------------------------------------------------------------------------------
              Babylon. Outro is the same as the intro then this at the end:   

-2-2-2-2-2-2-2-2-3-3-3-3-3-3-3-3-3-3-3-3-3-3-3-3-3-3-3-3-3-3-3-3-3-3-3-3-3-3--
-3-3-3-3-3-3-3-3--------------------------------------------------------------
-2-2-2-2-2-2-2-2--------------------------------------------------------------
------------------------------------------------------------------------------
-----------------2-2-2-2-2-2-2-2-2-2-2-2-2-2-2-2-2-2-2-2-2-2-2-2-2-2-2-2-2-2--
-----------------3-3-3-3-3-3-3-3-3-3-3-3-3-3-3-3-3-3-3-3-3-3-3-3-3-3-3-3-3-3--
 D, G x 5 and end on a D.                                                     

-3-3-3-3-3-3-3-3-3-3---2------------------------------------------------------
-----------------------3------------------------------------------------------
-----------------------2------------------------------------------------------
------------------------------------------------------------------------------
-2-2-2-2-2-2-2-2-2-2----------------------------------------------------------
-3-3-3-3-3-3-3-3-3-3----------------------------------------------------------
 The little hammer on bit throughout goes something along the lines of:       

------------------------------------------------------------------------------
--2-h3------------------------------------------------------------------------
------------------------------------------------------------------------------
------------------------------------------------------------------------------
------------------------------------------------------------------------------
------------------------------------------------------------------------------
                                                                              
Comments