Gray David - Babylon Chords & Tabs

 

Babylon Chords & Tabs

Gray David Chords & Tabs

Version: 1 Type: Bass Tab 0 ratings
1 star 2 stars 3 stars 4 stars 5 stars
comments

Babylon Bass Tab

hey wazzzup you david gray lovers this is my first bass tab but it is one hundred percent correct cause i performed with my band The Poiky Toikies so here it is


Verse

looking back throught time
g---------------------
d-------7-7--9-9-7-7-0
a--5-5----------------
e--------------------- repeat untill chorus
[ Tab from: http://www.guitartabs.cc/tabs/g/gray_david/babylon_btab.html ]
chorus
1
g----------------------------------------------
d----------------------------------------------
a-5-5-5-5-5------------------------------------
e-----------5-5-5-5-5-0-0-0-0-0-2-2-2-2-2-2-2-2
2
g----------------------------------------------
d----------------------------------------------
a-5-5-5-5-5------------------------------------
e-----------5-5-5-5-5-0-0-0-0-0-3-3-3-3-3-3-3-3
3
g----------------------------------------------
d----------------------------------------------
a-5-5-5-5-5---------------------0-0-0-0-0-0-0-0
e-----------5-5-5-5-5-0-0-0-0-0----------------

babylon then start verse over again. on the last chorus it repeats a line that is where you repeat number three. i hope that this isnt too complicated.

if you want more information on The Poiky Toikies please e-mail me on njal3@hotmail.com
Comments