Graveyard Bbq - Cheat On The Church Chords & Tabs

 

Cheat On The Church Chords & Tabs

Graveyard Bbq Chords & Tabs

Version: 1 Type: Tab 1 rating
1 star 2 stars 3 stars 4 stars 5 stars
comments

Cheat On The Church Tab

Band- Graveyard BBQ
Song- Cheat on the Church
Tabbed by – Chumbawumba


Chorus:
E  --------------------------------------------------------------------------------------------
B  ----12---------------15--------------14-------------13--------12----------------------------
G  ----12--------12-15------15-14--------14-13--------11-----12--------------------------------
D  ----12-----------------------------------------------------------12-------------------------
A  ----12-----------------------------------------------------------12--------------------------
E  ----12-----------------------------------------------------------12--------------------------

Verse:

E------------------------------------------------------------------------------------------
B------------------------------------------------------------------------------------------
G-------0-0-0-5\3------0-0-0-3-----0-0-0-5\3-------0-0-------------------------------------
D-------0-0-0-5\3------0-0-0-3-----0-0-0-5\3-------0-0-------------------------------------
A-------0-0-0-5\3------0-0-0-3-----0-0-0-5\3-------0-0-----------0------------------------
E----3----------------3-------------3----------------3-------0—0----6--------------------

Pre- Breakdown

E------------------------------------------------------------------------------------------
B------------------------------------------------------------------------------------------
G--------0---------------------------------------------------------------------------------
D--------0---------------------------------------------------------------------------------
A--------0------------------------3---4---5------------------------------------------------
E-----3-------0---3---4---5--- ----------------3^------------------------------------------
Bridge

E-------------------------------------------------------------------------------------------
B-------------------------------------------------------------------------------------------
G-------------------------------------------------------------------------------------------
D-------------------------------------------------------------------------------------------
A--------------------------------3---4---5 ------------------------------------------------
E---3--5--5--3--3--4--4--5----------------3--3---3--3--3--3--3-----------------------------







solos

Solo 1
E----------------------------------------------------------------------------------------------------------
B---------------------11----------------------11--------------------11------------------------------------
G-12---12---10-12------12-10-12-10-12----12-10-12-10-12--------12-10-12-5-3-0------------------------------
D---------------------------------------------------------------------------------------------------------
A---------------------------------------------------------------------------------------------------------
E---------------------------------------------------------------------------------------------------------

E---------------------------------------------------------------------------------------------------------
B---------------------------------------------------------------------------------------------------------
G—3--0--5--0--5--0--6--0--5--0--3---0--5--0--6--0--5--0--15--0--17--0--10--0--17--0--15-------------------
D---------------------------------------------------------------------------------------------------------
A---------------------------------------------------------------------------------------------------------
E----------------------------------------------------------------------------------------------------------

E----------------------------------------------------------------------------------------------------------
B----------------------------------------------------------------------------------------------------------
G--0--17--0--10---0--17--0//////////////////////////////////////12-----------------------------------------
D---------------------------------------------------------------------------------------------------------
A---------------------------------------------------------------------------------------------------------
E----------------------------------------------------------------------------------------------------------

Solo 2

E----12////////////////////////////////////24-------------------------------------------------------12----12--
B----12////////////////////////////////////24--------12--11-------12--11-------------11--12----------12------
G---------------------------------------------------------12-------------12--12---------------------12-------
D------------------------------------------------------------------------------------------------------------
A-----------------------------------------------------------------------------------------------------------
E------------------------------------------------------------------------------------------------------------

[ Tab from: http://www.guitartabs.cc/tabs/g/graveyard_bbq/cheat_on_the_church_tab.html ]
E--------------3-----------------------------------------------------------13----------------------------
B-----------3----6--3--5--3----3-----6--3--5---3-------------------13------------------------------------
G-------5---------------------6-------------------------5-----13--15---------16--13--15--13---------------
D----------------------------------------------------------------------------------------------------16---
A---------------------------------------------------------------------------------------------------------
E---------------------------------------------------------------------------------------------------------






E---------------------------------------------------------------------------------------------------------
B-----------------------------------------------------------------27-----------------27-------------------
G----13---------------------------------------------------------------------------------------------------
D----------16--13--15--13--------13-----------------------------------------------------------------------
A-------------------------------15------------------------------------------------------------------------
E----------------------------------------------------------------------------------------------------------

Main solo

E----------------------------------------------------------------------------------------------------------
B----------------------------------------------------------------------------------------------------------
G------------------------------------------------------------------------------------------------------15--
D--------------------------------------------------------------------------------------------------13------
A-----------------------------13--14--15----------------------------------------13--14--15-----------------
E----13--15--13--14--15-------------------13-------13--15--13--14--15--------------------------------------

E---------------13----13---13-----13-----13-----13-------13-----------------------------------------------
B---------------------------------------------------------------------------------------------------------
G---13--15------15----15-----15-----15-----15-----15-----------------------------------------------------
D-------------------------------------------------------------------------------------------------------
A-------------------------------------------------------------------------------------------------------
E-------------------------------------------------------------------------------------------------------

E----------------------------------------------------------------------------------------------------------
B----------------------------------------------------------------------------------------------------------
G------------------------------------------------------------------------------------------------------15---
D--------------------------------------------------------------------------------------------------13------
A-----------------------------13--14--15----------------------------------------13--14--15-----------------
E----13--15--13--14--15-------------------13-------13--15--13--14--15--------------------------------------

E---------------13----13---13-----13-----13-----13------------------------------------------------------
B------------------------------------------------------------------------------------------------------
G---13--15------15----15-----15-----15-----15-----15--------------------------------------------------
D------------------------------------------------------------------------------------------------------
A------------------------------------------------------------------------------------------------------
E-------------------------------------------------------------------------------------------------------


E--------------------------------------------------------------------------------------------------------
B--------------------------------------------------------------------------------------------------------
G----15---15--13-------15------13------------------15------------14---15---10--14---15--10---------------
D--------------------15-----15--------15---13---15----15---16---------------------------------------------
A--------------------------------------------------------------------------------------------------------
E--------------------------------------------------------------------------------------------------------


E---------------------------------------------------------------------------------------------------------
B---------------------------------------------------------------------------------------------------------
G----14---15---10--14---15--10---14---15--10--10-------10---0--0--10--------------------------------------
D----------------------------------------------------------------------------------------------------------
A---------------------------------------------------------------------------------------------------------
E---------------------------------------------------------------------------------------------------------

E---------------------------------------------------------------------------------------------------------
B---------------------------------------------------------------------------------------------------------
G--0--18---0---17--0--0--17--0--0--17--0--15--0--15---0--12---0---10--0---12------------------------------
D---------------------------------------------------------------------------------------------------------
A---------------------------------------------------------------------------------------------------------
E---------------------------------------------------------------------------------------------------------


That’s it. Listen to the song to find out the order.

**** when you see the ///////// it means slide or bend*******

I know its not "perfect" but it sounds like the song. 
Comments