Graveland - The Night Of Fullmoon Chords & Tabs

 

The Night Of Fullmoon Chords & Tabs

Graveland Chords & Tabs

Version: 1 Type: Tab 0 ratings
1 star 2 stars 3 stars 4 stars 5 stars
comments

The Night Of Fullmoon Tab

'The Night Of Fullmoon' by Graveland (from 'In The Glare Of Burning Churches')

www.theblackdeath.cjb.net

Normal tuning

Riff 1 4 times
e|-----------------|
B|-----------------| "Pagan country in the moonlight
G|-----------------| witches calling for their Lord
D|-2---3---3---4-3-| incantation of the Darkside"
A|-0---0---1---1-1-|
E|-----------------|

Riff 2 (w/heavy keyboards) 2 times
e|-----------------|
B|-----------------|
G|-----------------|
D|-7-------5-------|
A|-5---6---3---4---|
E|-----4-------2---|

Play riff 1 4 times w/lyrics: "from the book of secret world
Scream breaks off nocturnal silence
then begins the rite of Darkness
Hill in the fog
the heart of wood"

Play riff 2 2 times
[ Tab from: http://www.guitartabs.cc/tabs/g/graveland/the_night_of_fullmoon_tab.html ]
Riff 3 4 times
e|---------------------------|
B|---------------------------| "Hill in the fog
G|---------------------------| the heart of wood
D|-7/8-8-\5-5/7--7/8-8\7-10--| altar of goat
A|-5/6-6-\3-3/5--5/6-6\5--8--| infernal gloom"
E|---------------------------|

Riff 4 4 times
e|-------------------------------|
B|-------------------------------| "nocturnal rite
G|-------------------------------| knife in the hand
D|-7/8-8\7-7/10-10\9-9\6-6/8-8\5-| worship Darkside
A|-5/6-6\5-5/-8--8\7-7\4-4/6-6\3-| bless Left Hand Path"
E|-------------------------------|

Riff 5 4 times
e|-----------------|
B|-----------------| "Pagans hidden in the forest
G|-----------------| in unholy common grave
D|-2-------3---5---| christians killed the last worshipper
A|-0---5---1---3---| but the Dark Cult is still living"
E|-----3-----------|

End with A5 (let ring)
Comments