Grave - Judas Chords & Tabs

 

Judas Chords & Tabs

Grave Chords & Tabs

Version: 1 Type: Tab 0 ratings
1 star 2 stars 3 stars 4 stars 5 stars
comments

Judas Tab

   
Lucas

"Judas" as performed by GRAVE
on the album "Soulless"
released by Century Media Recs.
tabbed by: Lucas Lyndes
lyndes@landmarknet.net

Notes: Guitars I and II double each other throughout, except
in the second measure of Riff C3, where one takes the high notes,
one takes the low. However, this measure can be played easily enough
with one guitar, and that's how it's been tabbed.

TUNE TO B
---------

SONG STRUCTURE
--------------
Feedback/guitar noise for 5 measures
RIFF A1 X 4
RIFF A2 X 5
RIFF B  X 2
RIFF A1 X 4
RIFF A2 X 5
RIFF B  X 2-w/out last measure
RIFF C1 X 2
RIFF C2 X 1
RIFF C3 X 1
RIFF C2 X 1
RIFF C1 X 1
RIFF C2 X 1
RIFF C3 X 1-w/out last measure
RIFF D1 X 2
RIFF D2 X 5
feedback fades out


RIFF A1
|----------------|--------|
|----------------|--------|
|----------------|--------|
|----------------|--------|
|-6-5-6-8--4--3--|-(3)----|
|-4-3-4-6--2--1--|-(1)----|

RIFF A2
              ________        ____________
             |1.-4.          |5.
|----------------|--------|  ----|--------|
|----------------|--------|  ----|--------|
|----------------|--------|  ----|--------|
|----------------|--------|  ----|--------|
|----------------|--------|  -3--|-(3)----|
|-4-3-4-6--2--1--|-(1)----|  -1--|-(1)----|

RIFF B
[ Tab from: http://www.guitartabs.cc/tabs/g/grave/judas_tab.html ]
|-----------|-------|-------------|------|
|-----------|-------|-------------|------|
|-----------|-------|-------------|------|
|-----------|-------|-------------|------|
|-----------|3------|-3-2~--2-44--|-3----|
|--5--4~----|1------|-------------|-1----|

RIFF C1

|-------------|------------|
|-------------|------------|
|-------------|-2\1---2/4--|
|-------------|------------|
|-3--3333-3-3-|------------|
|-1--1111-1-1-|----11------|
     .... . .      ..

RIFF C2

|-------------|------------|
|-------------|------------|
|-------------|-------2/4--|
|-------------|-2\1--------|
|-3--3333-3-3-|------------|
|-1--1111-1-1-|----11------|
     .... . .      ..

RIFF C3

|-------------|------------|
|-------------|------------|
|-------------|-2\1---2/4--|
|-------------|-2\1---2/4--|
|-3--3333-3-3-|------------|
|-1--1111-1-1-|----11------|
     .... . .      ..

RIFF D1
       _____ ________
      |1.   |2.
|-----|-----|--------|
|-----|-----|--------|
|-----|-----|--------|
|-----|-----|--------|
|-5---|-4---|-4---/7-|
|-3---|-2---|-2---/5-|


RIFF D2
          ________ ___________________
         |1.-4.   |5.
|--------|--------|----------|--------|
|--------|--------|----------|--------|
|--------|--------|----------|--------|
|--------|--------|----------|--------|
|-5---/7-|-4---/7-|-4---/777-|-5------|
|-3---/5-|-2---/5-|-2---/555-|-3------|
                         ..      let ring
Comments