Grave - Haunted Chords & Tabs

 

Haunted Chords & Tabs

Grave Chords & Tabs

Version: 1 Type: Tab 0 ratings
1 star 2 stars 3 stars 4 stars 5 stars
comments

Haunted Tab

   
                                  GRAVE - HAUNTED
                          From the Album: INTO THE GRAVE
                           Copyright:Century Media 1991
                            Version 1.0 - Oct, 26 2001
 

Transcribed by: James Williams (Inverted)
 
For Questions, Comments, Newest Version, or Corrections contact
Inverted: at Inverted_one@hotmail.com
 
Check Out Death8699.com Metaltabs.com or dsrmusic.com for More
Transcriptions:http://www.Death8699.com http://www.Metaltabs.com


 .  - palm mute           /  - slide up to
 \  - slide down to       ~  - vibrato
 h  - hammer on           b  - bend
 p  - pull off            Suffixes for bend ^
 ph - pinched harmonic    f - full bend    h - half bend
 *  - see comment         r - release      t - tap bend
 X  - Stuccatto           ~ - vibrato bend q - quarter bend
 ,  - slight palm mute   () - ghost note, sustained note
 
 Tune Guitar to "B"E"A"D"F#"D"
 
 HAUNTED!

Riff 1      
|-------------------------------------------------------------------|
|-------------------------------------------------------------------|
|-------------------------------------------------------------------|Gtr I
|-------------------------------------------------------------------|
|--3----5----------3----5----------3----5----------3----5---0h3-2~--|
|--1-00-3-0-0h3-2--1-00-3-0-0h3-2--1-00-3-0-0h3-2--1-00-3-0---------|
spm  ,,   , , , ,    ,,   , , , ,    ,,   , , , ,    , ,  ,

Riff 1      
|-------------------------------------------------------------------|
|-------------------------------------------------------------------|
|-------------------------------------------------------------------|Gtr II
|-----------------------------------------------------------2x------|
|--3----5----------3----5----------3----5----------3----5---2x------|
|--1-00-3-0-0h3-2--1-00-3-0-0h3-2--1-00-3-0-0h3-2--1-00-3-0-0x------|
spm  ,,   , , , ,    ,,   , , , ,    ,,   , , , ,    , ,  ,

Riff 2 - A
|-------------------------------------------------------------------|
|-------------------------------------------------------------------|
|-------------------------------------------------------------------|
|-------------------------------------------------------------------|
|-----------0h3-2~--------------------------0h3-2~--------------3~--|
|--0-0-0-0---------0-0-0--2h3p2-3~-0-0-0-0---------0-0-0--2h3p2-----|
spm, , , ,         , , ,  , , , ,  , , , ,         , , ,  , , ,
[ Tab from: http://www.guitartabs.cc/tabs/g/grave/haunted_tab.html ]
Riff 2 - B
|-------------------------------------------------------------------|
|-------------------------------------------------------------------|
|-------------------------------------------------------------------|
|-------------------------------------------------------------------|
|-----------0h3-2~--------------------------0h3-2~--------------3~--|
|--00000000--------000000-2h3p2-3~-00000000--------000000-2h3p2-----|
spm,,,,,,,,        ,,,,,, , , , ,  ,,,,,,,,        ,,,,,, , , ,

Bass Line
|-------------------|
|-------------------|
|----------2--------|
|--0-3-2-3---3-2-3--|

Riff 3
|------------------------------------------------------|
|------------------------------------------------------|
|---------------------------------------------2--------|
|-------------------------------------0-3-2-3---3-2-3--|
|--7--7--7--7--6--6--6--6--7--7--7--7------------------|
|--5005005005004004004004005005005005------------------|
spm ,, ,, ,, ,, ,, ,, ,, ,, ,, ,, ,,

Riff 4
|--------------------------------------------------------------------
|--------------------------------------------------------------------
|--------------------------------------------------------------------
|--------------------------------------------------------------------
|-----------3---5----------------------------3---5----------0h3-2-3--
|--00000000-1-0-3-00000000-0h3-2-3--00000000-1-0-3-00000000----------
spm,,,,,,,,   ,   ,,,,,,,, , , , ,  ,,,,,,,,   ,   ,,,,,,,, , , , ,

 -------------------------------------------------------------------|
 -------------------------------------------------------------------|
 ----------------------------------------------------------2--------|
 --------------------------------------------------0-3-2-3---3-2-3--|
 -----------3---5----------------------------3---5------------------|
 --00000000-1-0-3-00000000-0h3-2-3--00000000-1-0-3------------------|
   ,,,,,,,,   ,   ,,,,,,,, , , , ,  ,,,,,,,,   ,

Riff 5
|----------------------------------------------------------------------|
|----------------------------------------------------------------------|
|----------------------------------------------------------------------|
|----------------------------------------------------------------------|
|----------2----------------2----------------2----------------2--------|
|--0-3-2-3---3-2-3--0-3-2-3---3-2-3--0-3-2-3---3-2-3--0-3-2-3---3-2-3--|
pm . . . . . . . .  . . . . . . . .  . . . . . . . .  . . . . . . . .

 *Song ends on a E5 power chord.

Song Structure:

Riff ( 1 ) x 4 
Riff (2-A) x 2
Riff (2-B) x 2
Bass Line  x 1
Riff ( 3 ) x 2
Riff (2-A) x 2
Riff (2-B) x 2
Bass Line  x 1
Riff ( 3 ) x 2
Riff ( 4 ) x 2
Riff ( 1 ) x 4
Riff (2-B) x 2
Bass Line  x 2
Riff ( 5 ) x 2
Riff ( 3 ) x 4
Bass Line  x 1
End!

 Check out my other tabs by Grave, Hypocrisy and Obituary.
Comments