Grave - Christinsanity Chords & Tabs

 

Christinsanity Chords & Tabs

Grave Chords & Tabs

Version: 1 Type: Tab 0 ratings
1 star 2 stars 3 stars 4 stars 5 stars
comments

Christinsanity Tab

   
                            GRAVE - CHRISTI(NS)ANITY
                       From the Album: YOU'LL NEVER SEE...
                          Copyright: Century Media 1992
                           Version 1.0 - October 2001
 
Transcribed by: James Williams (Inverted)
 
For Questions, Comments, Newest Version, or Corrections contact
 Inverted: at Inverted_one@hotmail.com
 
Check Out Death8699.com Metaltabs.com or dsrmusic.com for More
Transcriptions: http://www.Death8699.com http://www.Metaltabs.com


 .  - palm mute           /  - slide up to
 \  - slide down to       ~  - vibrato
 h  - hammer on           b  - bend
 p  - pull off            Suffixes for bend ^
 ph - pinched harmonic     f - full bend    h - half bend
 *  - see comment          r - release      t - tap bend
 X  - Stuccatto            ~ - vibrato bend q - quarter bend
 ,  - slight palm mute    () - ghost note, sustained note
 
Tune Guitar to "B"E"A"D"F#"D"
 
CHRISTI(NS)ANITY!
 
Riff 1 Gtr I                          x3                                     x1
|---------------------------------------||-------------------------------------|
|---------------------------------------||-------------------------------------|
|----556666555555----55555555-----------||---556666555555----6666666655555555--|
|--33------------6666--------6666555555-||-33------------6666------------------|
|---------------------------------------||-------------------------------------|
|---------------------------------------||-------------------------------------|
 
        x4
|---------|
|---------|
|---------|Gtr II
|--2-3-2--|
|--2-3-2--|
|--0-1-0--|
pm . .
 
Riff 2 - A                            x3                                     x1
|---------------------------------------||-------------------------------------|
|---------------------------------------||-------------------------------------|
|---------------------------------------||-------------------------------------|
|---------------------------------------||-------------------------------------|
|------3---2---------2------------------||------3---2--------3-------2---------|
|--0-0-----------3-----------3---2------||--0-0----------3---------------------|
pm . .                                      . .    
                  
Riff 2 - B                            x3                                     x1
|---------------------------------------||-------------------------------------|
|---------------------------------------||-------------------------------------|
|---------------------------------------||-------------------------------------|
|---------------------------------------||-------------------------------------|
|----223333222222----22222222-----------||---223333222222----3333333322222222--|
|--00------------3333--------3333222222-||-00------------3333------------------|
pm ..                                      ..
 
Riff 3
|------------------------|
|------------------------|
|------------------------|
|--4----4\5/4------5-----|
|--2----2\3/2-4----3--5--|
|-------------2-------3--|
 
Riff 4 - A
|------------------------------------|
|------------------------------------|
|------------------------------------|
|----------5-------------------------|
|--2-------3-----------2222----------|
|--0---------------3333----33332222--|
 
Riff 4 - B
|------------------------------------|
|------------------------------------|
|------------------------------------|
|------------------------------------|
|----------33333333----2222----------|
|--00000000--------3333----33332222--|
[ Tab from: http://www.guitartabs.cc/tabs/g/grave/christinsanity_tab.html ]
Riff - C
|------------------------------------|
|------------------------------------|
|----------66666666----5555----------|
|--33333333--------6666----66665555--|
|------------------------------------|
|------------------------------------|

Riff 4 - D
|------------------------------------|
|------------------------------------|
|------------------------------------|
|----------5-------------------------|
|--2-------3-------5---2222----------|
|--0---------------3-------33332222--|

Riff 5
|--------------------------------------------------------------------|
|--------------------------------------------------------------------|
|--------------------------------------------------------------------|
|-----------------------------4--5-----------------------------------|
|----3-2----------2-----------2--3----3-2----------2-----------4--5--|
|--0-----3--0-2-3----0-3-2--0-------0-----3--0-2-3----0-3-2--0-2--3--|
pm .        . . .    . . .  .       .        . . .    . . .  .
 
Riff 6 - A
|-----------------------------------------------------------------------------|
|-----------------------------------------------------------------------------|
|-----------------------------------------------------------------------------|
|-----------------------------------------------------------------------------|
|--2----3--2----------3-------2----3--2-----3333333322222222--------3333------|
|--0----------3--2-------2----0----------3------------------33332222----2222--|
pm                                          ................................

Riff 6 - B (solo riff)
|-----------------------------------------------------------------------------|
|-----------------------------------------------------------------------------|
|-----------------------------------------------------------------------------|
|-------5--4----------5------------5--4---------------------------------------|
|--2----3--2--5--4----3--4----2----3--2--5----------3333------------3333------|
|--0----------3--2-------2----0----------3--33332222----222233332222----2222--|
pm                                          ................................

Solo
|--------------------------------------------------------bh-------------------
|--bf------------------------------------------------11-(11^)r-11~-------11~--
|--9^-------------------------------------------11~------------------12-------
|---------9~---9--11--12---11~------------12----------------------------------
|-------------------------------12-p-11~--------------------------------------
|-----------------------------------------------------------------------------
 
                  -------------17^-----15-p-14---11~--12~--|
                  --11-h-12~---bf--------------------------|
                  -----------------------------------------|
                  -----------------------------------------|
                  -----------------------------------------|
                  -----------------------------------------|
 
Riff 7 - A
|---------------------|
|---------------------|
|--3---4------4---3x--|
|--3---4------4---3x--|
|--1---2------2---1x--|
|--1---2------2---1x--|

Riff 7 - B
|------------------------|
|------------------------|
|--3-\-4--4------4---3x--|
|--3-\-4--4------4---3x--|
|--1-\-2--2------2---1x--|
|--1-\-2--2------2---1x--|

Song Structure:

Riff ( 1 ) x 1
Riff (2-A) x 1
Riff (2-B) x 2
Riff ( 3 ) x 4
Riff (2-B) x 2
Riff ( 3 ) x 4
Riff (4-A) x 2
Riff (4-B) x 4
Riff (4-C) x 2
Riff (4-B) x 4
Riff (4-D) x 8
Riff ( 5 ) x 4
Riff (6-A) x 1
Riff (6-B) x 2 W/Solo
Riff ( 1 ) x 1
Riff (2-A) x 1
Riff (2-B) x 2
Riff (7-A) x 8
Riff (7-B) x 10
End!

 Check out my other tabs by Grave, Hypocrisy and Obituary.
Comments