Grateful Dead - Scarlet Begonias Chords & Tabs

 

Scarlet Begonias Chords & Tabs

Grateful Dead Chords & Tabs

Version: 1 Type: Tab 0 ratings
1 star 2 stars 3 stars 4 stars 5 stars
comments

Scarlet Begonias Tab

                             Scarlet Begonias
                              Grateful Dead
                            From The Mars Motel

h- hammer on
p- pull off
/- slide

Intro:
e---5-----7---|
B---5-----7---|
G---6-----8---|  Alternate these 4 times
D---7-----9---|
A---7-----9---|
E---5-----7---|
[ Tab from: http://www.guitartabs.cc/tabs/g/grateful_dead/scarlet_begonias_tab.html ]
Verse:
e---5---5---5---7--------------------------------|
B---5---5---5---7--------------------------------|
G---6---6---6---8-------------------------------o|
D---7---7---7---9-------------------------------o|
A---7---7---7---9------6h7p6----9--9h11p9--12----|
E-------------------7--------7-------------------|

Chorus:
e---5---------7-----5---------------5---------7-----5---------7---|
B---5---------7-----5---------------5---------7-----5---------7---|
G---6-----9---8-----6-----9---9-----6-----9---8-----6-----9---8---|
D---7-----9---9-----7-----9---9-----7-----9---9-----7-----9---9---|
A---7-----7---9-----7-----7---7-----7-----7---9-----7-----7---9---|
E-------------------------------------------------------------7---|
Comments