Grateful Dead - Ripple Chords & Tabs

 

Ripple Chords & Tabs

Grateful Dead Chords & Tabs

Version: 2 Type: Tab 1 rating
1 star 2 stars 3 stars 4 stars 5 stars
comments

Ripple Tab

#----------------------------------PLEASE NOTE---------------------------------#
#This file is the author's own work and represents their interpretation of the #
#song. You may only use this file for private study, scholarship, or research. #
#------------------------------------------------------------------------------##

Grateful Dead
Ripple

This is the entire song on one guitar, you need no one else to play it in full 
but yourself.  I had help on this tab from a movie I rented from the library.  
I've tweaked it a bit, but only for the better. I recommend my other Grateful 
Dead tab, "Friend of the Devil", look for my name...
-Luke Maas 


TUNING: STANDARD


[------------------------------------------------------3-------7---5-----------]
[-------------0---0---1-----3----------------0---------------------------------]
[-------------0---0---2----------------------------------------7---5-----------]
[-------------------------------0--------0-----------------0-------------------]
[------------------------------------------------------------------------------]
[---------------------------3--------3-------------3---------------------------]


[---3--------0---------------------------------0---3---------------------------]
[------------------------------------------3-----------------------------------]
[--------0-------------0----------0------------0-------------------------------]
[------------------------------------------------------------------------------]
[---3-------------3-----------3--------3---------------------------------------]
[------------------------------------------------------------------------------]

[-----------------3-/-5-------3-------------0----------------------------------]
[---------------------------------------3--------------------------------------]
[--------0------------0------------0------------0------------------------------]
[------------------------------------------------------------------------------]
[---3---------3---------------3---------3--------------------------------------]
[------------------------------------------------------------------------------]


[---3----------0---------------------------------------------------------------]
[-----------------------------3---------0---1-------3--------------------------]
[--------0----------0----------------------------------------------------------]
[----------------------------------0------------0------------------------------]
[---3----------3---------------------------------------------------------------]
[-----------------------------3---------3--------------------------------------]

[------------------------3---7---5---3-------0---------------------------------]
[------------------------------------------------------------------------------]
[----------------------------7---5-------0-------0-----------------------------]
[-------0-------0--------0-----------------------------------------------------]
[------------------------------------3-------3---------------------------------]
[---3-------3--------3---------------------------------------------------------]


[---------------------0-------7--------7---------8-----------------------------]
[------------1-----------------------------------------------------------------]
[--------0----------------0--------7-----------------7-------------------------]
[-----------------------------5-------------5----------------------------------]
[---3-------------3------------------------------------------------------------]
[------------------------------------------------------------------------------]

[---5-------------------------0--------3--------3-/-5--------------------------]
[------------------7-----------------------------------------------------------]
[--------7-------------7-----------0----------------0--------------------------]
[---0---------0----------------------------------------------------------------]
[-----------------------------3-------------3----------------------------------]
[------------------------------------------------------------------------------]


[---3------------------------------5-------------------------------------------]
[----------------------------------5---------8---------------------------------]
[------------------------------------------------------------------------------]
[--------0---------------------------------------------------------------------]
[-----------------------------0---------0--------------------------------------]
[---3---------3--2--3--4-------------------------------------------------------]

[---5------------------------------2-------0-----------------------------------]
[---5-----------------8------------3-----------3-------------------------------]
[------------5---------------------2---2------------2--------------------------]
[----------------------------------0-----------0-------------------------------]
[--------0-------0--------0----------------------------------------------------]
[------------------------------------------------------------------------------]

[ Tab from: http://www.guitartabs.cc/tabs/g/grateful_dead/ripple_tab_ver_2.html ]
[------------0-------2-------------3--------5-/-3------------------------------]
[----------------------------------------------------3-------------------------]
[--------2---------------2--------------0--------------------------------------]
[---0------------0----------------------------------------0--------------------]
[------------------------------------------------------------------------------]
[----------------------------------3------------3------------------------------]
           
[---0--------0---------------------3-------2---3--------5----------------------]
[-------------------------------------------------------7----------------------]
[--------0-----------------------------2---------------------------------------]
[-------------------------------------------------------0----------------------]
[---3------------3---2-------------0-------0-------0---------------------------]
[------------------------------------------------------------------------------]

  
[------------3----------------3------------3-----------------------------------]
[---------------------0--------------------------------------------------------]
[--------0-----------------------------0---------------------------------------]
[-------------------------0----------------------------------------------------]
[------------------------------------------------0----2------------------------]
[---3-------------3----------------3-------------------------------------------]
   
[------------3----------------0------------0-----------------0-----------------]
[---------------------1------------------------------1-------------------------]
[--------0----------------0------------0-----------------0---------------------]
[------------------------------------------------------------------------------]
[---3-------------3---------------3--------------3-----------------------------]
[------------------------------------------------------------------------------]



  

[-----------0---------------0--------------0----------------0------------------]
[-------------------1-------------------------------1--------------------------]
[-------0---------------0--------------0----------------0----------------------]
[------------------------------------------------------------------------------]
[---3-----------3-----------------3-------------3------------------------------]
[------------------------------------------------------------------------------]

 
[-----------0---------------0--------------3------------3-----------------3----]
[-------------------1-------------------------------------------0--------------]
[-------0---------------0--------------0---------------------------------------]
[---------------------------------------------------0----------------0---------]
[---3-----------3--------------------------------------------------------------]
[---------------------------------3-------------3-----------3------------------]

  
[------------3----------------3---------------3--------------------------------]
[---------------------0---------------0----------------------------------------]
[------------------------------------------------------------------------------]
[--------0----------------0---------------0------------------------------------]
[--------------------------------------------------0----2----------------------]
[---3-------------3---------------3--------------------------------------------]

 
[---------------0----------------0------------------0--------------------------]
[-------1----------------1------------------1----------------------------------]
[-----------0----------------0------------------0------------------------------]
[------------------------------------------------------------------------------]
[---3-----------------------------------3----------------2----0----------------]
[--------------------3---------------------------------------------------------]

 
[-----------3---------------3--------------------2----------------2------------]
[-------0-----------0-------------------------------------3--------------------]
[--------------------------------------------2----------------2----------------]
[-----------------------0---------------0-------------0------------------------]
[------------------------------------------------------------------------------]
[---3-----------3--------------------------------------------------------------]

  
[------------------------------------------------3-----------------------------]
[-------1-------0--------1-----------------------------------------------------]
[-----------0--------------------------------0---------------------------------]
[----------------------------2-------------------------------------------------]
[---3----------------3---------------------------------------------------------]
[---------------------------------------3-------------3--2--3--4---------------]

     
[--------0--------------0--------------------0---------------------------------]
[--------1------1--------------------------------------1-----------------------]
[-------------------2------------------------2--------------2------------------]
[------------------------------------------------------------------------------]
[---0-----------------------------------0----------0---------------------------]
[------------------------------------------------------------------------------]




  
[-------2-----------------2-------------------------2--------------------------]
[-----------------3-------------------------3----------------------------------]
[-------2-------------2-------------------------2------------------------------]
[---0--------0--------------------------0--------------------------------------]
[------------------------------------------------------------------------------]
[--------------------------------------------------------0----2----------------]
   
[-----------3--------3--------------------------0----------------0-------------]
[--------------------------------------------------------1---------------------]
[-------0-----------------------------------0----------------0-----------------]
[------------------------------------------------------------------------------]
[----------------0-------2--------------3------------3-------------------------]
[---3--------------------------------------------------------------------------]

  
[------------0----------------------------------2-------------3--------2----3--]
[---------------------2-------0---------------------------3------------3----0--]
[--------0----------------0-----------------2-----------------2--------2----0--]
[---------------------------------------0-------------0----------------O----0--]
[---0-------------0---------------------------------------------------------2--]
[---------------------------------------------------------------------------3--]


I'm to tired to continue, it's exactly 1:11 AM, and I've been up all day. 
Until my next tab.  Enjoy : )
Comments