Grateful Dead - Operator Chords & Tabs

 

Operator Chords & Tabs

Grateful Dead Chords & Tabs

Version: 1 Type: Tab 0 ratings
1 star 2 stars 3 stars 4 stars 5 stars
comments

Operator Tab

#----------------------------------PLEASE NOTE--------------------------------#
#This file is the author's own work and represents their interpretation of the#
#song. You may only use this file for private study, scholarship, or research.#
#-----------------------------------------------------------------------------#

Date: Mon, 29 Jun 1998 13:16:02 -0500
From: Nick Bayard 
Subject: g/grateful_dead/operator.tab


by the Grateful Dead, on the album, American Beauty

transcribed by Nick Bayard


Sung by Ron (pig pen) McKernan, who also played the blues harp.
someone already covered the harmonica tab, so this is the guitar part:

e)--------------------------8------------------------------
b)--10---8---10---8---10-------------------------------------
g)----------------------------8---9---8----9--------------------
d)---------------------------------------------10---10---11---12---12-
a)--------------------------------------------------------------- 
e)--------------------------------------------------------------
[ Tab from: http://www.guitartabs.cc/tabs/g/grateful_dead/operator_tab.html ]
e)-----------------------------------------------------------
b)----------------------------------------------------------
g)--10---10---10---12---10--------------------10------------------        
d)---------------------------10----12----10--------10---12---10---        
a)-------------------------------------------------------------------        
e)--------------------------------------------------------------        


main riff repeated throughout song- followed by next line
e)----------------------------------------------------------------        
b)-------------------------------------------------------------  
g)---10----------------10-----------------------(12)------------     
d)---------10----12----------10----12----10-------------------       
a)----------------------------------------------------------
e)----------------------------------------------------------
(the (12) works into the riff in different ways)


e)-----------------------------------------------------------------       
b)----------------------------------------------------------------
g)---12---12---10---8---9---8---9---8---9--------------------10---10---12
d)------------------------------------------10----11----12--------------       
a)---------------------------------------------------------------------
e)--------------------------------------------------------------   
[F] Operator, can you help me?  Help me if you please
Comments