Grateful Dead - On The Road Again Chords & Tabs

 

On The Road Again Chords & Tabs

Grateful Dead Chords & Tabs

Version: 1 Type: Tab 0 ratings
1 star 2 stars 3 stars 4 stars 5 stars
comments

On The Road Again Tab

   
#----------------------------------PLEASE NOTE--------------------------------#
#This file is the author's own work and represents their interpretation of the#
#song. You may only use this file for private study, scholarship, or research.#
#-----------------------------------------------------------------------------#

Date: Sat, 04 Apr 1998 16:31:36 -0500
From: ToM 
Subject: gratefuldead/On the road again.TAB

Grateful Dead "On the Road Again" trad.
>From "Reckonin" more or less


C7 F

E---------8------------8----------8------8--5--------
B-------8---8--------8----------8---8---------8--5---
G---8h9-------9--8h9--------8h9-------9------------5-
D----------------------------------------------------
A----------------------------------------------------
E----------------------------------------------------


E--------------------------------8-------8--5--------
B-10---------------------------8---8----------8--5---
G-10-----------------------8h9-------9-------------5-
D-10-------------------------------------------------
A-8--------------------------------------------------
E----------------------------------------------------

[ Tab from: http://www.guitartabs.cc/tabs/g/grateful_dead/on_the_road_again_tab.html ]
E---------8------------8----------8------8--5--------
B-------8---8--------8----------8---8---------8--5---
G---8h9-------9--8h9--------8h9-------9------------5-
D----------------------------------------------------
A----------------------------------------------------
E----------------------------------------------------


2X
E---------8------------8*----------8------8--5--------
B-------8---8--------8----------8---8---------8--5---
G---8h9-------9--8h9--------8h9-------9------------5-
D----------------------------------------------------
A----------------------------------------------------
E----------------------------------------------------
(*sometimes on 15 instead of 8)

Refrain instrumentally.

E---------8------------8----------8------8--5--------
B-------8---8--------8----------8---8---------8--5---
G---8h9-------9--8h9--------8h9-------9------------5-
D----------------------------------------------------
A----------------------------------------------------
E----------------------------------------------------

refrain

2X
E---------8------------8----------8------8--5--------
B-------8---8--------8----------8---8---------8--5---
G---8h9-------9--8h9--------8h9-------9------------5-
D----------------------------------------------------
A----------------------------------------------------
E----------------------------------------------------

All comments welcome
Comments