Grateful Dead - Me And My Uncle Chords & Tabs

 

Me And My Uncle Chords & Tabs

Grateful Dead Chords & Tabs

Version: 1 Type: Tab 0 ratings
1 star 2 stars 3 stars 4 stars 5 stars
comments

Me And My Uncle Tab

   
#----------------------------------PLEASE NOTE---------------------------------#
#This file is the author's own work and represents their interpretation of the #
#song. You may only use this file for private study, scholarship, or research. #
#------------------------------------------------------------------------------##
Return-Path: 
Sender: "TPLBA" 
To: guitar@nevada.edu
Date: Tue, 28 Jun 94 17:23:29 EDT
Subject: Grateful Dead, Me And My Uncle.tab

This cowboy comp style can be used for dozens of songs.  This is one way
somebody showed me how to play it. Another disclaimer: the words aren't
perfect, either.  I tried to take them off the record, but...
-----------------------------cut here-------------------

Me and My Uncle
John Phillips


  C                                 Am
|--------------0----------|--------------0-----0---|
|--------------1-----1----|--------------1-----1---|
|--------------0-----0----|--------------3-----3---|
|--------------2-----2----|------------------------|
|-0--1--2--3------------3-|-3--2--1--0-----------0-|
|-----------------3-------|----------------0-------|
[ Tab from: http://www.guitartabs.cc/tabs/g/grateful_dead/me_and_my_uncle_tab.html ]
  C                                 Am
|--------------0----------|--------------0-----0---|
|--------------1-----1----|--------------1-----1---|
|--------------0-----0----|--------------3-----3---|
|--------------2-----2----|------------------------|
|-0--1--2--3------------3-|-3--2--1--0-----------0-|
|-----------------3-------|----------------0-------|

  C                                 Am
|--------------0----------|--------------0-----0---|
|--------------1-----1----|--------------1-----1---|
|--------------0-----0----|--------------3-----3---|
|--------------2-----2----|------------------------|
|-0--1--2--3------------3-|-3--2--1--0-----------0-|
|-----------------3-------|----------------0-------|

  C                     D                     Am              E
  |----0-----0----|------------2-----2-----2---|----------------|---------------
-||----1-----1----|------------1-----1-----1---|-----------1----|---------------
-||----0-----0----|------------2-----2-----2---|--------2-----2-|-----------1---
-||----2-----2----|---------------0-----0------|-----2----------|--------2-----0
-||-3-----------3-|--2--3--5-------------------|--0-------------|----2----------
-||------3--------|----------------------------|----------------|-0-------------

  Am (let ring)    repeat ad nauseam
|--0-------------|
|--1-------------|
|--2-------------|
|--2-------------|
|--0-------------|
|----------------|
Comments