Grateful Dead - I Know You Rider Chords & Tabs

 

I Know You Rider Chords & Tabs

Grateful Dead Chords & Tabs

Version: 1 Type: Bass Tab 0 ratings
1 star 2 stars 3 stars 4 stars 5 stars
comments

I Know You Rider Bass Tab

   
Song: I Know You Rider
Artist: Grateful Dead
Tab Writer: Rippleseeker

Verse:

  D       C   G   D       D
G---------------------------------|
D---------------------------------|
A-5---5---3-3-----5---5---5---5---|
E---5---5-----3-3---5---5---5---5-|
[ Tab from: http://www.guitartabs.cc/tabs/g/grateful_dead/i_know_you_rider_btab.html ]
Chorus:
  F   C   F   C   D       D
G---------------------------------|
D-3-3-----3-3---------------------|
A-----3-3-----3-3-5---5---5---5---|
E-------------------5---5---5---5-|

End Chorus:
 F   C   F   C   D       D
G---------------------------------|
D-3-3-----3-3---------------------|
A-----3-3-----3-3-5---5---5(ring)-|
E-------------------5---5---------|

Order of what is played

Verse x2
Chorus
Verse x2
Chorus
Verse x2
Chorus
Verse x2
End Chorus
Comments