Grateful Dead - Friend Of The Devil Chords & Tabs

 

Friend Of The Devil Chords & Tabs

Grateful Dead Chords & Tabs

Version: 5 Type: Tab 0 ratings
1 star 2 stars 3 stars 4 stars 5 stars
comments

Friend Of The Devil Tab

   
Band - Grateful Dead
Song - Friend Of The Devil

Jerry's Intro:
e|----------3------------------------------------------------|
B|-----------------------------------------------------------|
G|-----------------------------------------------------------|
D|-----5----4-----2--2---------------------------------------|
A|---5---------5--------5---0--3---0--2--0-------------------|
E|-------------------------------------------3---------------|

Bob's Intro: (fast)
e|-----------------------------------------------------------|
B|-----------------------------------------------------------|
G|---0-------------------------------------------------------|
D|------4--2--0----------------------------------------------|
A|----------------3--2--0------------------------------------|
E|--------------------------3--------------------------------|

Jerry's Part:
e|-----------------|-----------------------------------------|
B|-----------------|-----------------------------------------|
G|-------0--0h2--0-|-----0--2h4--4p2-0--------2p0-0-0-0h2-0-0|
D|-0h1h2-----------|-0h4----------------0h1h2----------------|
A|-----------------|-----------------------------------------|
E|-----------------|-----------------------------------------|

e|-----------------------------------------------------------|
B|------------0h1h3---3h5--3---------------------------------|
G|-0--0--4p0------------------5--5-------2p0-----0-----------|
D|----------------------------------1^2-------2--------------|
A|-----------------------------------------------------------|
E|-----------------------------------------------------------|
[ Tab from: http://www.guitartabs.cc/tabs/g/grateful_dead/friend_of_the_devil_tab_ver_5.html ]
e|--------------------0--------------------------------------|
B|------------0h1h3------3--1---1--1-------------------------|
G|-0--0--4p0--------------------------2p0--------------------|
D|-----------------------------------------------------------|
A|-----------------------------------------------------------|
E|-----------------------------------------------------------|

G
I lit out from Reno,
      C
I was trailed by twenty hounds
G
Didn't get to sleep that night
          C
'Till the morning came around.

D
Set out runnin' but I take my time
  Am
A friend of the devil is a friend of mine
   D
If I get home before daylight,
  Am                  C       D
I just might get some sleep tonight.

Ran into the devil, babe,
He loaned me twenty bills
I spent the night in Utah
In a cave up in the hills.

Set out runnin' but I take my time,
A friend of the devil is a friend of mine,
If I get home before daylight,
I just might get some sleep tonight.

I ran down to the levee
But the devil caught me there
He took my twenty dollar bill
And vanished in the air.

Set out runnin' but I take my time
A friend of the devil is a friend of mine
If I get home before daylight,
I just might get some sleep tonight.

D
Got two reasons why I cry
D
Away each lonely night,
    C
The first one's named Sweet Anne Marie,
    C                          C  C#
And she's my hearts delight.
    D
The second one is prison, baby,
    D
The sheriff's on my trail,
    Am
And if he catches up with me,
     C                D
I'll spend my life in jail.

Got a wife in Chino, babe,
And one in Cherokee
The first one says she's got my child,
But it don't look like me.

Set out runnin' but I take my time,
A friend of the devil is a friend of mine,
If I get home before daylight,
I just might get some sleep tonight.

Extra Verse

You can borrow from the devil
You can borrow from a friend
The devil'll loan ya twenty
But your friend got only ten
Comments