Grateful Dead - Eyes Of The World Solo Chords & Tabs

 

Eyes Of The World Solo Chords & Tabs

Grateful Dead Chords & Tabs

Version: 1 Type: Tab 0 ratings
1 star 2 stars 3 stars 4 stars 5 stars
comments

Eyes Of The World Solo Tab

#----------------------------------PLEASE NOTE---------------------------------#
#This file is the author's own work and represents their interpretation of the #
#song. You may only use this file for private study, scholarship, or research. #
#------------------------------------------------------------------------------#


This is a blend of versions based on the album version on "Wake of the Flood".  Some technical 
errors may exist because of lengthy typing process ;-), tabbing from my only source(LP), and
my general mistakes.  However, this is part of the spirit of the jam! Smile and keep forever
playin' on!
 
Eyes of the World--Intro and Lead solo
Solos by Jerry Garcia, song by Garcia\Hunter


Intro:

-(17)16~--(14)12-12~-------------------------------------------------
-----------------------------16-16-16-16--16p14---------------------- Thanks to rukind.com
-----------------------13-16--------------------16p14p13--13--------- for helping w/ intro
---------------------------------------------------------------16-14- and chorus!
---------------------------------------------------------------------
---------------------------------------------------------------------
Chorus:
 
-17(19)--(19)17p15----15----------------------------------------
-------------------17----17-15-------15-------------------------
-------------------------------14/16-----14(16)-14-12--14/16-12-
----------------------------------------------------------------
----------------------------------------------------------------
----------------------------------------------------------------
1st Solo:

-------------------------------------------------------
-16~-14--14h16--16p14---14----------14-----------------
----------------------16---16-14-16----16-14p13--------
-------------------------------------------------16-14-
-------------------------------------------------------
-------------------------------------------------------

----------------------------------------------------------------
-------------------------------------------------14-15-15-14----
-13-----------13-----------13----13--14-16-14-16-------------16-
----16-14-13-----16-14-13-----16--------------------------------
----------------------------------------------------------------
----------------------------------------------------------------
[ Tab from: http://www.guitartabs.cc/tabs/g/grateful_dead/eyes_of_the_world_solo_tab.html ]
-----------------------------------------------------
-14h15p14--------------------------------------------
----------16--13h14-------13h14-13-13----------------
--------------------14-16-------------16-14-13-13----
--------------------------------------------------16-
-----------------------------------------------------

                                     v    repeat a few times     v          
---------------------------------------14h15p14------------15(16)~-
-----------------------14-16-15~--/15-----------17p15h17-----------
-----------------13-16---------------------------------------------
-13----13h14--16---------------------------------------------------
----16-------------------------------------------------------------
-------------------------------------------------------------------

Second Solo:           this can get messy (try sliding around)
---------------------------------------------------------------------
-14h16-14-14h15h16-14-14h15h16p14h16-14h15p14p12-12h14--15p12-14p12--
---------------------------------------------------------------------
---------------------------------------------------------------------
---------------------------------------------------------------------
---------------------------------------------------------------------
---------------------------------------------------------------------

-------------------------------------------------------
-12h14p12----12-14-15-15-14---12-----------11h12911----
----------14----------------15---15-13--13----------14-
-------------------------------------------------------
-------------------------------------------------------
-------------------------------------------------------

---------------------------------------------------------------
12-------------------------------------------------------------
---14-12-11-14-12-11----11h12p11---11-----------11-------------
---------------------14---------14----14-12-11-----14-12-11----
------------------------------------------------------------14-
---------------------------------------------------------------

------------------------------------------------------------
------------------------------------------------------------
--------------------------11----11h12-14--12p11-------------
-------11-12-14-12--12h14----14-----------------14p12-14-14-
-10/14------------------------------------------------------
------------------------------------------------------------

------------------------------------------------
-------------11h12-14h15-16h17-17-17--16-14-12~-
-12p11h12h14------------------------------------
------------------------------------------------
------------------------------------------------
------------------------------------------------Repeat? :-)
Submitted by Darkstarjam@lycos.com
December 6, 2000
Comments