Grateful Dead - China Cat Sunflower Chords & Tabs

 

China Cat Sunflower Chords & Tabs

Grateful Dead Chords & Tabs

Version: 5 Type: Tab 0 ratings
1 star 2 stars 3 stars 4 stars 5 stars
comments

China Cat Sunflower Tab

   
                                China Cat Sunflower
                                     The Greatful Dead

Jerry's Intro
E--------------------------|--------------------------------|
B--------------------------|--------------------------------|
G--------------------------|--------------------------------|
D------5----------3---5----|------5-----------5-----------5-|
A----------3^5-------------|------------3^5--------3^5------|
E--3-----------------------|--3-----------------------------|

Bob's Intro
E----------------------|------------------|
B---12--13p12----------|--12h13--15--15---|
G--------------14--12--|------------------|
D----------------------|------------------|
A----------------------|------------------|
E----------------------|------------------|

E----------------------|-10--12--13----15--17--19---|
B---12--13p12----------|----------------------------|
G--------------14------|----------------------------|
D----------------------|----------------------------|
A----------------------|----------------------------|
E----------------------|----------------------------|

E----------------------|------------------|
B---12--13p12----------|--12h13--15--15---|
G--------------14--12--|------------------|
D----------------------|------------------|
A----------------------|------------------|
E----------------------|------------------|

E----------------------|-10--12--13----15--17--15---|
B---12--13p12----------|----------------------------|
G--------------14------|----------------------------|
D----------------------|----------------------------|
A----------------------|----------------------------|
E----------------------|----------------------------|

Verse Ending
E-5h7-5---|-----5-7-|-7-7-7-7h8p7-------|-----7-5---5--------|
B-------8-|-5^8-----|-------------10--8-|-5-8-----8---8--5---|
G---------|---------|-------------------|--------------------|
D---------|---------|-------------------|--------------------|
A---------|---------|-------------------|--------------------|
E---------|---------|-------------------|--------------------|
[ Tab from: http://www.guitartabs.cc/tabs/g/grateful_dead/china_cat_sunflower_tab_ver_5.html ]
E---------|--------|----7-8p7------------------|
B-------7-|-7h8-10-|-10-------10--8-10p8-7-----|
G-7-7h9---|--------|-----------------------9---|
D---------|--------|---------------------------|
A---------|--------|---------------------------|
E---------|--------|---------------------------|
                                  C    D
E---------|--------|----7-8p7-----8----10------|
B-------7-|-7h8-10-|-10-------10--8----10------|
G-7-7h9---|--------|--------------9----11------|
D---------|--------|--------------10---12------|
A---------|--------|--------------10---12------|
E---------|--------|--------------8----10------|

Bridge Solo
(At this point, the whole tune modulates from G to E.  Play
Bob's intro part starting on Fret 9 of the B string)
E-----------------------|-----9-10p9------------------------|
B----------9----9-10-12-|-12---------12--10-12p10-9---------|
G---9-9h11---11---------|----------------------------11-----|
D-----------------------|-----------------------------------|
A-----------------------|-----------------------------------|
E-----------------------|-----------------------------------|

E-----------------------------------------------------------|
B------------10--9------------------------------------------|
G--9-9-11-11-------11--9------9--11-------------------------|
D-------------------------12---------10---------------------|
A-----------------------------------------------------------|
E-----------------------------------------------------------|

E--------|-----------------------------|-----9-10p9---------|
B--------|------------9------9--10--12-|--12---------12--10-|
G-9h11-9-|--9--9--11-----11------------|--------------------|
D--------|-----------------------------|--------------------|
A--------|-----------------------------|--------------------|
E--------|-----------------------------|--------------------|

E-----------------------------------------------------------|
B--12--10--9--------------------10--9-----------------------|
G-------------11--9--9--11--11---------11--9-----9h11--9----|
D--------------------------------------------12-------------|
A-----------------------------------------------------------|
E-----------------------------------------------------------|

(^) Slide Up  (\) Slide Down  (h) Hammer On  (p) Pull Off  (b) Bend

      This is my first tab and I hope it helped you in some way.
           email:tylerm0sk0witz@hotmail.com        feel free to rate this tab
Comments