Grarge - Bible Salad Chords & Tabs

 

Bible Salad Chords & Tabs

Grarge Chords & Tabs

Version: 1 Type: Bass Tab 0 ratings
1 star 2 stars 3 stars 4 stars 5 stars
comments

Bible Salad Bass Tab

BIBLE SALAD, by GRARGE!
From the album Bible Salad.

main riff:
G|----------------------------|
D|--------------------9-------|
A|-------7---------------10---|
E|--0-0-----0------0----------|
[ Tab from: http://www.guitartabs.cc/tabs/g/grarge/bible_salad_btab.html ]
fills:
G|-------------------------||--------------------------------|
D|-----------------9--10---||---------------------9h10p9-----|
A|-------7-----------------||-------7---------------------10-|
E|--0-0-----0---0----------||--0-0-----0-------0-------------|
    play these fills at any random points during the
        main riff. this songs is always played different

2nd riff:
G|--------------------------------------|
D|--------------------------------------|
A|--------------------------------------|
E|--0-0-3-0----3B-------0-0-3-0----3B---|
     bend the string upward to the side of the
    neck to get that weird sound on the CD.

OK, that's the basics. When GRARGE! records songs, they record
them in standrard tuning, but speed the tapes up in the mixing
process. I don't know why. Plus most of their songs are always
played differently except for the main parts the songs are based on.
Comments