Grapes Of Wrath - All The Things I Wasnt Chords & Tabs

 

All The Things I Wasnt Chords & Tabs

Grapes Of Wrath Chords & Tabs

Version: 1 Type: Tab 0 ratings
1 star 2 stars 3 stars 4 stars 5 stars
comments

All The Things I Wasnt Tab

#----------------------------------PLEASE NOTE---------------------------------#
#This file is the author's own work and represents their interpretation of the #
#song. You may only use this file for private study, scholarship, or research. #
#------------------------------------------------------------------------------##
From: jkerr@harley.fcmr.forestry.ca (Jeff Kerr)

                          All the Things I Wasn't
                          by the Grapes of Wrath

Here's what I figured out so far, everything but the bridge.  I don't
know when I'll have time to figure out the rest, so I decided to post
what I have so far:
[ Tab from: http://www.guitartabs.cc/tabs/g/grapes_of_wrath/all_the_things_i_wasnt_tab.html ]
capo 5th fret
-------------------                       ----------------
----3--------------                       ----3-------1---
--0---0---0--------   fig. 1              --0---0---------  fig. 2
----------------0--                       ----------3---3-
------------1H3----                       ----------------
3-------3----------                       3-------1-------


repeat fig.1...
                             fig.2
Hours of hiding________________________________________ 
                                fig.2
About_________________________ About______________ bear 

                 
Tell me...
-----------------------------------------------0-------------0-------
----3---------3----------------3-------------3---3---------3---3-----
--0---0-----3-----3----------0-----0-------2-------2-----2-------2---
----------3---------3------0---------0---0-----------0-3-----------3-
0-------1-------------1--0-------------0-----------------------------
---------------------------------------------------------------------

--------------------------------------------
1-----3--------1-----3--------1-----3---1/8-
----0---0----------0---0----------0---0-----
--0-------0------0-------0------0-----------
3-----------3--1-----------1--0-------------
--------------------------------------------
Comments