Grandmaster Flash And The Furious Five - White Lines Chords & Tabs

 

White Lines Chords & Tabs

Grandmaster Flash And The Furious Five Chords & Tabs

Version: 1 Type: Bass Tab 0 ratings
1 star 2 stars 3 stars 4 stars 5 stars
comments

White Lines Bass Tab

   
Song: White Lines
Artist: Grand Master Flash

There are only three parts in this song for bass-

  Verse:

G:-------------------------------------------------------------
D:-------------------------------------------------------------
A:-0-3--0-3--0-3--0-3--------0-3--0-3--0-3--0-3----------------
E:-------------------------------------------------------------

G:-------------------------------------------------------------
D:-------------------------------------------------------------
A:-0-3--0-3--0-3--0-3--030-303--030-303------------------------
E:-------------------------------------------------------------

Vocal Chorus:
[ Tab from: http://www.guitartabs.cc/tabs/g/grandmaster_flash_and_the_furious_five/white_lines_btab.html ]
   G        B        D         F
G:-------------------------------------------------------------
D:-------------------------------------------------------------
A:-------------------------------------------------------------
E:-33333333-33333333-33333333--33333333------------------------

   G

G:-------------------------------------------------------------
D:---5-3---3---3-5-3---3-5-------5-3---3---5-4-3----------------
A:-------5---5-------5---------------5---5-------5-4-3---------
E:-3--------------------------3------------------------6-5-----




Transcribed by Christopher Funicelli
Comments or suggestions, please email me at cfunz@aol.com 

Comments