Grandmaster Flash And The Furious Five - The Adventures Of Flash On The Wheels Of Steel Chords & Tabs

 

The Adventures Of Flash On The Wheels Of Steel Chords & Tabs

Grandmaster Flash And The Furious Five Chords & Tabs

Version: 1 Type: Bass Tab 0 ratings
1 star 2 stars 3 stars 4 stars 5 stars
comments

The Adventures Of Flash On The Wheels Of Steel Bass Tab

Artist: Grand Master Flash & The Furious Five
Track: The Adventures Of Flash On The Wheels Of Steel
Tuning: Standard
Tabbed by: Tomsk

This is a classic funky bass-line.
There are two ways of playing this track:

G|--------------------------------|
D|--------------------------------|
A|--------------------------------|
E|--0-0-0--0-0-0-2-3-5-7-9-10-12--|

G|---------------------------------------|
D|---------------------------------------|
A|--0-0-0--0-0-0-9-(0)-10-(0)-9-7-5-4-5--|
E|---------------------------------------|

OR
[ Tab from: http://www.guitartabs.cc/tabs/g/grandmaster_flash_and_the_furious_five/the_adventures_of_flash_on_the_wheels_of_steel_btab.html ]
G|------------------------------|
D|-------------------------0-2--|
A|-------------------0-2-4------|
E|--0-0-0--0-0-0-2-3------------|

G|------------------------------|
D|---------------4-5-4-2-0---0--|
A|--0-0-0--0-0-0-----------4----|
E|------------------------------|

0:57

G|----------------------|
D|----------------------|
A|----------------------|
E|--0-0-0--0-0-0-3-0-5--|

This is all the bass that is not manipulated by Flash's decks.

If you want to see the funky disco splurge (4:07) arranged for guitar
then checkout my tab.
Thanks
Barca_Rocks@hotmail.com
Comments