Grandaddy - The Crystal Lake Chords & Tabs

 

The Crystal Lake Chords & Tabs

Grandaddy Chords & Tabs

Version: 1 Type: Bass Tab 0 ratings
1 star 2 stars 3 stars 4 stars 5 stars
comments

The Crystal Lake Bass Tab

Song:      The Crystal Lake
Artist:    Grandaddy
Album:     The Sophtware Slump
Tabbed by: Jason Mangan
Date:      5-3-2001

Intro:
G|----------------|----------------|----------------|----------------|
D|----------------|----------------|----------------|----------------|
A|3-3-3-3-3-3-3-3-|3-3-3-3-3-3-3-3-|----------------|----------------|
E|----------------|----------------|1-1-1-1-1-1-1-1-|1-1-1-1-1-1-1-1-|
  1 * 2 * 3 * 4 *  1 * 2 * 3 * 4 *  1 * 2 * 3 * 4 *  1 * 2 * 3 * 4 *

|----------------|----------------|----------------|----------------|
|----------------|----------------|----------------|----------------|
|0-0-0-0-0-0-0-0-|0-0-0-0-0-0-0-0-|----------------|----------------|
|----------------|----------------|1-1-1-1-1-1-1-1-|1-1-1-1-1-1-1-1-| (x2)
1 * 2 * 3 * 4 *  1 * 2 * 3 * 4 *  1 * 2 * 3 * 4 *  1 * 2 * 3 * 4 *

Verse:
|----------------|----------------|----------------|----------------|
|----------------|----------------|----------------|----------------|
|3-3-3-3-3-3-3-3-|3-3-3-3-3-3-3-3-|----------------|----------------|
|----------------|----------------|2-2-2-2-2-2-2-2-|2-2-2-2-2-2-2-2-|
1 * 2 * 3 * 4 *  1 * 2 * 3 * 4 *  1 * 2 * 3 * 4 *  1 * 2 * 3 * 4 *

|----------------|----------------|----------------|----------------|
|----------------|----------------|----------------|----------------|
|5-5-5-5-5-5-5-5-|5-5-5-5-5-5-5-5-|----------------|----------------|
|----------------|----------------|1-1-1-1-1-1-1-1-|1-1-1-1-3-3-3-3-|
1 * 2 * 3 * 4 *  1 * 2 * 3 * 4 *  1 * 2 * 3 * 4 *  1 * 2 * 3 * 4 *

Pre-chorus:
|----------------|----------------|----------------|----------------|
|----------------|----------------|----------------|----------------|
|3-3-3-3-3-3-3-3-|3-3-3-3-3-3-3-3-|----------------|----------------|
|----------------|----------------|2-2-2-2-2-2-2-2-|2-2-2-2-2-2-2-2-|
1 * 2 * 3 * 4 *  1 * 2 * 3 * 4 *  1 * 2 * 3 * 4 *  1 * 2 * 3 * 4 *
[ Tab from: http://www.guitartabs.cc/tabs/g/grandaddy/the_crystal_lake_btab.html ]
|----------------|----------------|----------------|----------------|
|----------------|----------------|----------------|----------------|
|5-5-5-5-5-5-5-5-|5-5-5-5-5-5-5-5-|----------------|----------------|
|----------------|----------------|1-1-1-1-1-1-1-1-|1-1-1-1-1-1-1-1-|
1 * 2 * 3 * 4 *  1 * 2 * 3 * 4 *  1 * 2 * 3 * 4 *  1 * 2 * 3 * 4 *

Chorus:
|----------------|----------------|----------------|----------------|
|----------------|----------------|----------------|----------------|
|----------------|----------------|----------------|----------------|
|6-6-6-6-6-6-6-6-|6-6-6-6-6-6-6-6-|4-4-4-4-4-4-4-4-|4-4-4-4-4-4-4-4-| (x3)
1 * 2 * 3 * 4 *  1 * 2 * 3 * 4 *  1 * 2 * 3 * 4 *  1 * 2 * 3 * 4 *

|----------------|----------------|----------------|----------------|
|----------------|----------------|----------------|----------------|
|----------------|----------------|----------------|----------------|
|6-6-6-6-6-6-6-6-|6-6-6-6-6-6-6-6-|4-4-4-4-4-4-4-1-|--1-1-1-1-1-1-1-|
1 * 2 * 3 * 4 *  1 * 2 * 3 * 4 *  1 * 2 * 3 * 4 *  1 * 2 * 3 * 4 *

|----------------|----------------|----------------|----------------|
|----------------|----------------|----------------|----------------|
|----------------|----------------|----------------|----------------|
|3-3-3-3-3-3-3-3-|3-3-3-3-3-3-3-3-|3---------------|----------------|
1 * 2 * 3 * 4 *  1 * 2 * 3 * 4 *  1 * 2 * 3 * 4 *  1 * 2 * 3 * 4 *

|----------------|----------------|----------------|----------------|
|----------------|----------------|----------------|----------------|
|----------------|----------------|----------------|----------------|
|4---------------|----------------|----------------|----------------|
1 * 2 * 3 * 4 *  1 * 2 * 3 * 4 *  1 * 2 * 3 * 4 *  1 * 2 * 3 * 4 *

Play intro once
Verse
Pre-chorus
Chorus

Outro:
|----------------|----------------|----------------|----------------|
|----------------|----------------|----------------|----------------|
|3-3-3-3-3-3-3-3-|3-3-3-3-3-3-3-3-|----------------|----------------|
|----------------|----------------|1-1-1-1-1-1-1-1-|1-1-1-1-1-1-1-1-| (x10)
1 * 2 * 3 * 4 *  1 * 2 * 3 * 4 *  1 * 2 * 3 * 4 *  1 * 2 * 3 * 4 *

|----------------|
|----------------|
|3---------------|
|----------------|
1 * 2 * 3 * 4 *

The End.

Comments