Grandaddy - Miner At The Dial A View Chords & Tabs

 

Miner At The Dial A View Chords & Tabs

Grandaddy Chords & Tabs

Version: 1 Type: Tab 0 ratings
1 star 2 stars 3 stars 4 stars 5 stars
comments

Miner At The Dial A View Tab

   
Song:      Miner At The Dial-A-View
Artist:    Grandaddy
Album:     The Sophtware Slump
Tabbed by: Jason Mangan
Date:      8-3-2001

Chords Used:
    Em   A    C    D    Bm   Fm   B    G
e|--0----0----0----2----2----1----2----3--|
b|--0----2----1----3----3----1----4----3--|
G|--0----2----0----2----4----1----4----0--|
D|--2----2----2----0----4----3----4----0--|
A|--2----0----3----x----2----3----2----2--|
E|--0----x----x----x----x----1----x----3--|


Verse Riff: (w/ slight variations)
e|----------------|----------------|----------------|----------------|
b|----------------|----------------|----------------|----------------|
G|----------------|----------------|----------------|----------------|
D|----------------|----------------|----------------|----------------|
A|2---2---2-2-2-2/|4-4---4---4---4-|3---3---3-3-3-3-|--3---3/5-5---\-|
E|----------------|----------------|----------------|----------------|
  1 * 2 * 3 * 4 *  1 * 2 * 3 * 4 *  1 * 2 * 3 * 4 *  1 * 2 * 3 * 4 *

Intro: (C)
[ Tab from: http://www.guitartabs.cc/tabs/g/grandaddy/miner_at_the_dial_a_view_tab.html ]
1st Verse:
Em                       A
I found your house and I saw your car
C                             D         Em         A   C     D
But I've no idea where you are from the Dial-A-View
Em                 A
Tire scraps on the federal roads
C                           D         Em         A   C     D
Look like crash landed crows from the Dial-A-View

Pre-chorus:
Bm
Hello, welcome to Dial-A-View
              Fm
To locate the area in which you wish to observe,
                             Em
You must program in the longitude and the latitude.
                            C                      A
For a closer, more detailed picture use either the zoom or the micro-zoom controls
..........good luck!

Chorus:
  Em       A    D         B
I dream at night of going home someday
  Em        A     D       B
Somewhere so far away
   Em      A      D                  B
So dream, alright, I know it's gonna take some time
 Em       C        G
I'm going home someday

2nd Verse:
Fifteen years is almost done
And I don't recognize anyone from the Dial-A-View
My home, my friends, and you
But what can I do from the Dial-A-View

Chorus

Interlude:
|D   |    |Em  |    |B   |    |C   |    |
|A   |    |C   |    |A   |    |D   |    |B   |    |

Chorus (x2)

Outro:
|Em   |C   |

The End.
Comments