Grandaddy - Miner At The Dial A View Chords & Tabs

 

Miner At The Dial A View Chords & Tabs

Grandaddy Chords & Tabs

Version: 2 Type: Bass Tab 0 ratings
1 star 2 stars 3 stars 4 stars 5 stars
comments

Miner At The Dial A View Bass Tab

Song:      Miner At The Dial-A-View
Artist:    Grandaddy
Album:     The Sophtware Slump
Tabbed by: Jason Mangan
Date:      29-3-2001

Some notes sound an octave lower; I think the guy plays a 5-string.

Intro:              Verse:
G|----------------| |----------------|----------------|----------------|----------------|
D|----------------| |----------------|----------------|----------------|----------------|
A|3-----3---3-----| |----------------|----------------|3---------------|--------5-------|
E|----------------| |0---------------|5---------------|----------------|----------------|
  1 * 2 * 3 * 4 *    1 * 2 * 3 * 4 *  1 * 2 * 3 * 4 *  1 * 2 * 3 * 4 *  1 * 
2 * 3 * 4 *

Pre-chorus:
|----------------|----------------|----------------|----------------|
|----------------|------------0---|3---------------|------2-----0---|
|2---------------|------4---------|----------------|----------------|
|----------------|----------------|----------------|----------------|
1 * 2 * 3 * 4 *  1 * 2 * 3 * 4 *  1 * 2 * 3 * 4 *  1 * 2 * 3 * 4 *

|----------------|----------------|----------------|----------------|
|2---------------|------4-----5---|----------------|----------------|
|----------------|----------------|3---------------|----------------|
|----------------|----------------|----------------|5---------------|
1 * 2 * 3 * 4 *  1 * 2 * 3 * 4 *  1 * 2 * 3 * 4 *  1 * 2 * 3 * 4 *

Chorus:
(Play 1st & 2nd times only)         (Play 3rd & 4th times only)
|----------------|----------------| |----------------|----------------|
|----------------|----------------| |----------------|----------------|
|----------------|----------------| |7---7---7-7-7-7-|----------------|
|----------------|----------------| |----------------|5---5-5---5-5-5-|
1 * 2 * 3 * 4 *  1 * 2 * 3 * 4 *    1 * 2 * 3 * 4 *  1 * 2 * 3 * 4 *

|----------------|----------------|
|----------------|----------------|
|5---5---5-5---5-|----------------|
|----------------|7---7-7---7-7-7-|
1 * 2 * 3 * 4 *  1 * 2 * 3 * 4 *

|----------------|----------------|----------------|----------------|
|----------------|----------------|----------------|----------------|
|7---7---7-7-7-7-|----------------|5---5---5-5-5-5-|----------------|
|----------------|5---5-5---5-5-5-|----------------|7---7-7---7---7-|
1 * 2 * 3 * 4 *  1 * 2 * 3 * 4 *  1 * 2 * 3 * 4 *  1 * 2 * 3 * 4 *
[ Tab from: http://www.guitartabs.cc/tabs/g/grandaddy/miner_at_the_dial_a_view_btab_ver_2.html ]
|----------------|----------------|----------------|----------------|
|----------------|----------------|----------------|----------------|
|7---7---7-7-7-7-|----------------|5---5---5-5---5-|----------------|
|----------------|5---5-5---5-5-5-|----------------|7---7-7---7---7-|
1 * 2 * 3 * 4 *  1 * 2 * 3 * 4 *  1 * 2 * 3 * 4 *  1 * 2 * 3 * 4 *

|----------------|----------------|----------------|----------------|
|----------------|----------------|----------------|----------------|
|7---7---7-7-5---|3---3---3-3-3---|3-----3---3-5/--|----------------|
|----------------|----------------|----------------|3---3---3-3-3-3-|
1 * 2 * 3 * 4 *  1 * 2 * 3 * 4 *  1 * 2 * 3 * 4 *  1 * 2 * 3 * 4 *

                   (1st time only)
|----------------| |----------------|----------------|
|----------------| |----------------|----------------|
|----------------| |----------------|----------------|
|3-----3-3-3---3-| |----------------|----------------|
1 * 2 * 3 * 4 *    1 * 2 * 3 * 4 *  1 * 2 * 3 * 4 *

Verse
Pre-chorus
Chorus

Interlude:
|----------------|----------------|----------------|----------------|
|----------------|----------------|----------------|----------------|
|5---5---5-5-5-5-|5-5-5-5---5---5-|7---7---7-7-7-7-|7-7-7-7---7---7-|
|----------------|----------------|----------------|----------------|
1 * 2 * 3 * 4 *  1 * 2 * 3 * 4 *  1 * 2 * 3 * 4 *  1 * 2 * 3 * 4 *

|----------------|----------------|----------------|----------------|
|----------------|----------------|----------------|----------------|
|2-2-2-2-2-2-2-2-|2-2-2-2---2---2-|3-3-3-3-3-3-3-3-|3-3-3-3---3---3-|
|----------------|----------------|----------------|----------------|
1 * 2 * 3 * 4 *  1 * 2 * 3 * 4 *  1 * 2 * 3 * 4 *  1 * 2 * 3 * 4 *

|----------------|----------------|----------------|----------------|
|----------------|----------------|----------------|----------------|
|----------------|----------------|3-3-3-3-3-3-3-3-|3-3-3-3---3---3-|
|5-5-5-5-5-5-5-5-|5-5-5-5---5---5-|----------------|----------------|
1 * 2 * 3 * 4 *  1 * 2 * 3 * 4 *  1 * 2 * 3 * 4 *  1 * 2 * 3 * 4 *

|----------------|----------------|----------------|----------------|
|----------------|----------------|----------------|----------------|
|----------------|----------------|5-5-5-5-5-5-5-5-|5-5-5-5---5---5-|
|5-5-5-5-5-5-5-5-|5-5-5-5---5---5-|----------------|----------------|
1 * 2 * 3 * 4 *  1 * 2 * 3 * 4 *  1 * 2 * 3 * 4 *  1 * 2 * 3 * 4 *

|----------------|----------------|
|----------------|----------------|
|2-2-2-2-2-2-2-2-|2-2-2-2---2---2-|
|----------------|----------------|
1 * 2 * 3 * 4 *  1 * 2 * 3 * 4 *

Chorus (x2)

Outro:
|----------------|----------------|
|----------------|----------------|
|7---7---7---7-\-|3---------------|
|----------------|----------------|
1 * 2 * 3 * 4 *  1 * 2 * 3 * 4 *

Meat and potatoes stuff - and I got it wrong the first time!
The End.

Comments