Grandaddy - Im On Standby Chords & Tabs

 

Im On Standby Chords & Tabs

Grandaddy Chords & Tabs

Version: 1 Type: Tab 0 ratings
1 star 2 stars 3 stars 4 stars 5 stars
comments

Im On Standby Tab

   
-----------------------------------------------------------------------------
	      	          I'm On Standby - Grandaddy
-----------------------------------------------------------------------------

Tabbed by: Pete Haaland
Email: Pete@Frozenroyalty.co.uk

This is pretty similar to the other tab on here and most of the credit goes to the
person who made that, but it didn't include the Solo bits or the slide noises so I
thought I'd condense it.

Chords:
E |-0--0--1--3--1------
B |-1--1--3--3--1------
G |-0--2--2--0--2------   
D |-2--2--0--0--3------
A |-3--0--0--2--3------
E |-0--0--0--3--1------
    C Am  Dm G  F 


 C
I'm rolling down a well worn road
 Am
I'm wondering if I'll ever know
 F
If I'll be better than I was before
 G
When I surface through the service door

A |---------|
E |---15/1--|

 C
Bye 
          Am
I'm on standby
                     Dm        F
Out of order or sort of unaligned
                      G   
Powered down for redesign
     C
Bye bye
           Am
I'm on standby
                      Dm        F
According to the work order you signed
                   G  
I'll be down for some time
[ Tab from: http://www.guitartabs.cc/tabs/g/grandaddy/im_on_standby_tab.html ]
 E |--------------------|
 B |--------1-3-1-------|
 G |--0-2-4-------4-2-0-|
 D |--------------------|
 A |--------------------|
 E |--------------------|


I'll be down for some time

 E |--0---0-1-3---3-1-0---0---1---1-3-5---5-3-1-0---|
 B |--------------------3-------------------------3-|
 G |------------------------------------------------|
 D |------------------------------------------------|
 A |------------------------------------------------|
 E |------------------------------------------------|


I got good at saying "I gotta go"
Number one at saying "I don't know"
But from the stories I've heard
You humans require more words

A |---------|
E |---15/1--|

Bye 
I'm on standby
Out of order or sort of unaligned
Powered down for redesign
Bye bye
I'm on standby
According to the work order you signed
I'll be down for some time

 E |--------------------|
 B |--------1-3-1-------|
 G |--0-2-4-------4-2-0-|
 D |--------------------|
 A |--------------------|
 E |--------------------|

I'll be down for some time

 E |--0---0-1-3---3-1-0---0---1---1-3-5---5-3-1-0---|
 B |--------------------3-------------------------3-|
 G |------------------------------------------------|
 D |------------------------------------------------|    (x2)
 A |------------------------------------------------|
 E |------------------------------------------------|
Comments