Grand Prize - Simplicity Chords & Tabs

 

Simplicity Chords & Tabs

Grand Prize Chords & Tabs

Version: 1 Type: Tab 0 ratings
1 star 2 stars 3 stars 4 stars 5 stars
comments

Simplicity Tab

Simplicity, by Luke Caldwell
Music by Grand Prize


Intro Lead:
  1     2     3     4      1     2     3     4      1     2     3     4      1     2     3     4
E ------------------------|------------------------|------------------------|------------------------|
B 6-h7-p6-h7--------------|6-h7-p6-h7--9-----------|------------------------|------------------------|
G ------------------------|------------------6-----|6-h8-p6-h8-p6-----4-----|3-h4-p3-----------------|
D ------------------------|------------------------|------------------------|------------4-h6--------|
A ------------------------|------------------------|------------------------|------------------------|
E ------------------------|------------------------|------------------------|------------------------|

E ------------------------|------------------------|------------------------|------------------------|
B ------------------------|------------------------|7-----------------------|------------------------|
G 3-h4-p3-h4-p3-----------|------------6-h8-p6-----|------------------------|------------------------|
D ------------------4-----|4-h6-p4-----------------|------------------------|------------------------|
A ------------------------|------------------------|------------------------|------------------------|
E ------------------------|------------------------|------------------------|------------------------|


Verse Riff:
  1     2     3     4      1     2     3     4      1     2     3     4      1     2     3     4
E ------------9-----------|7-----------6-----------|6-----6-h7-p6-h7-p6-----|------9-----------------|
B -----7------------7-----|------------------7-----|------------------------|7-----------------------|
G ------------------------|------------------------|------------------------|------------------------|
D ------------------------|------------------------|------------------------|------------------------|
A ------------------------|------------------------|------------------------|------------------------|
E ------------------------|------------------------|------------------------|------------------------|


Intro to Chorus:
  1     2     3     4      1     2     3     4      1     2     3     4      1     2     3     4
E ------------------------|------------------------|------------------------|------------------------|
B 6-h7-p6-h7--------------|6-h7-p6-h7--9-----------|------------------------|------------------------|
G ------------------------|------------------6-----|6-h8-p6-h8-p6-----4-----|3-h4-p3-----------------|
D ------------------------|------------------------|------------------------|------------4-h6--------|
A ------------------------|------------------------|------------------------|------------------------|
E ------------------------|------------------------|------------------------|------------------------|

E ------------------------|------------------------|------------------------|------------------------|
B ------------------------|------------------------|7-----------------------|6-----------7-----------|
G 3-h4-p3-h4-p3-----------|------------6-h8-p6-----|------------------6-----|6-----6-----6-----------|
D ------------------4-----|4-h6-p4-----------------|------------------------|------------------------|
A ------------------------|------------------------|------------------------|------------------------|
E ------------------------|------------------------|------------------------|------------------------|


Chorus:
  1     2     3     4      1     2     3     4      1     2     3     4      1     2     3     4
E ------9-----------7-----|------6-----------6-----|6-h7-p6-h7-p6-----------|6-h7-p6-----9-----------|
B 7-----------7-----7-----|------------7-----------|------------------7-----|------------------7-----|
G ------------------------|------------------------|------------------------|------------------------|
D ------------------------|------------------------|------------------------|------------------------|
A ------------------------|------------------------|------------------------|------------------------|
E ------------------------|------------------------|------------------------|------------------------|

E ------9-----------7-----|------6-----------6-----|6-h7-p6-h7-p6-----------|9-----------9-h11p9-----|
B 7-----------7-----7-----|------------7-----------|------------------7-----|------7-----------------|
G ------------------------|------------------------|------------------------|------------------------|
D ------------------------|------------------------|------------------------|------------------------|
A ------------------------|------------------------|------------------------|------------------------|
E ------------------------|------------------------|------------------------|------------------------|

E ------9-----------7-----|------6-----------6-----|6-h7-p6-h7-p6-----------|6-h7-p6-----9-----------|
B 7-----------7-----7-----|------------7-----------|------------------7-----|------------------7-----|
G ------------------------|------------------------|------------------------|------------------------|
D ------------------------|------------------------|------------------------|------------------------|
A ------------------------|------------------------|------------------------|------------------------|
E ------------------------|------------------------|------------------------|------------------------|

E ------9-----------7-----|------6-----------6-----|7-----------------------|------------------------|
B 7-----------7-----7-----|------------7-----------|------------------------|------------------------|
G ------------------------|------------------------|------------------------|------------------------|
D ------------------------|------------------------|------------------------|------------------------|
A ------------------------|------------------------|------------------------|------------------------|
E ------------------------|------------------------|------------------------|------------------------|


Bridge:
  1     2     3     4      1     2     3     4      1     2     3     4      1     2     3     4
E ------9-----9-----9-----|9-----9-----9-----9-----|7-----7-----7-----6-----|------------------------|
B 7-----7-----7-----7-----|7-----7-----7-----7-----|7-----7-----7-----7-----|------7-----7-----7--7--|
G ------------------------|------------------------|------------------------|------------------------|
D ------------------------|------------------------|------------------------|------------------------|
A ------------------------|------------------------|------------------------|------------------------|
E ------------------------|------------------------|------------------------|------------------------|
[ Tab from: http://www.guitartabs.cc/tabs/g/grand_prize/simplicity_tab.html ]
E ------6-----------------|------------------------|------6-----------------|------------------------|
B 7-----7-----7-----9-----|------7-----------7-----|7-----7-----7-----9-----|------7-----------7-----|
G 6-----6-----------6-----|------6-----8-----8-----|8-----8-----8-----8-----|------8-----8-----8-----|
D ------------------------|------------------------|------------------------|------------------------|
A ------------------------|------------------------|------------------------|------------------------|
E ------------------------|------------------------|------------------------|------------------------|

E ------9-----9-----9-----|9-----9-----9-----9-----|7-----7-----7-----6-----|------------------------|
B 7-----7-----7-----7-----|7-----7-----7-----7-----|7-----7-----7-----7-----|------7-----7-----7--7--|
G ------------------------|------------------------|------------------------|------------------------|
D ------------------------|------------------------|------------------------|------------------------|
A ------------------------|------------------------|------------------------|------------------------|
E ------------------------|------------------------|------------------------|------------------------|

E ------6-----------------|------------------------|------6-----------------|------------------------|
B 7-----7-----7-----9-----|------7-----------7-----|7-----7-----7-----9-----|------7-----------7-----|
G 6-----6-----------6-----|------6-----8-----8-----|8-----8-----8-----8-----|------8-----8-----8-----|
D ------------------------|------------------------|------------------------|------------------------|
A ------------------------|------------------------|------------------------|------------------------|
E ------------------------|------------------------|------------------------|------------------------|

E ------------------------|9-----------------9-----|------------------------|9-----------------------|
B 7-----------7-----------|7-----7-----------7-----|------------------------|------------------------|
G ------------------------|------------------------|------------------------|------------------------|
D ------------------------|------------------------|------------------------|------------------------|
A ------------------------|------------------------|------------------------|------------------------|
E ------------------------|------------------------|------------------------|------------------------|


Final Chorus:
  1     2     3     4      1     2     3     4      1     2     3     4      1     2     3     4
E ------------------------|------------------------|------------------------|------------------------|
B 6-h7-p6-h7--------------|6-h7-p6-h7--9-----------|------------------------|------------------------|
G ------------------------|------------------6-----|6-h8-p6-h8-p6-----4-----|3-h4-p3-----------------|
D ------------------------|------------------------|------------------------|------------4-h6--------|
A ------------------------|------------------------|------------------------|------------------------|
E ------------------------|------------------------|------------------------|------------------------|

E ------------------------|------------------------|------------------------|------------------------|
B ------------------------|------------------------|7-----------------6-h7-p|6-h7-p6-----9-----------|
G 3-h4-p3-h4-p3-----------|------------6-h8-p6-----|------------------------|------------------------|
D ------------------4-----|4-h6-p4-----------------|------------------------|------------------------|
A ------------------------|------------------------|------------------------|------------------------|
E ------------------------|------------------------|------------------------|------------------------|

E ------------------------|------------------------|------------------------|------------------------|
B 6-h7-p6-h7--------------|6-h7-p6-h7--9-----------|------------------------|------------------------|
G ------------------------|------------------6-----|6-h8-p6-h8-p6-----4-----|3-h4-p3-----------------|
D ------------------------|------------------------|------------------------|------------4-h6--------|
A ------------------------|------------------------|------------------------|------------------------|
E ------------------------|------------------------|------------------------|------------------------|

E ------------------------|------------------------|------------------------|------------------------|
B ------------------------|------------------------|7-----------------------|6-----------7-----------|
G 3-h4-p3-h4-p3-----------|------------6-h8-p6-----|------------------6-----|6-----6-----6-----------|
D ------------------4-----|4-h6-p4-----------------|------------------------|------------------------|
A ------------------------|------------------------|------------------------|------------------------|
E ------------------------|------------------------|------------------------|------------------------|

  1     2     3     4      1     2     3     4      1     2     3     4      1     2     3     4

E ------9-----------7-----|------6-----------6-----|6-h7-p6-h7-p6-----------|6-h7-p6-----9-----------|
B 7-----------7-----7-----|------------7-----------|------------------7-----|------------------7-----|
G ------------------------|------------------------|------------------------|------------------------|
D ------------------------|------------------------|------------------------|------------------------|
A ------------------------|------------------------|------------------------|------------------------|
E ------------------------|------------------------|------------------------|------------------------|

E ------9-----------7-----|------6-----------6-----|6-h7-p6-h7-p6-----------|9-----------9-h11p9-----|
B 7-----------7-----7-----|------------7-----------|------------------7-----|------7-----------------|
G ------------------------|------------------------|------------------------|------------------------|
D ------------------------|------------------------|------------------------|------------------------|
A ------------------------|------------------------|------------------------|------------------------|
E ------------------------|------------------------|------------------------|------------------------|

E ------9-----------7-----|------6-----------6-----|6-h7-p6-h7-p6-----------|6-h7-p6-----9-----------|
B 7-----------7-----7-----|------------7-----------|------------------7-----|------------------7-----|
G ------------------------|------------------------|------------------------|------------------------|
D ------------------------|------------------------|------------------------|------------------------|
A ------------------------|------------------------|------------------------|------------------------|
E ------------------------|------------------------|------------------------|------------------------|

E ------9-----------7-----|------6-----------6-----|7-----------------------|------------------------|
B 7-----------7-----7-----|------------7-----------|------------------------|------------------------|
G ------------------------|------------------------|------------------------|------------------------|
D ------------------------|------------------------|------------------------|------------------------|
A ------------------------|------------------------|------------------------|------------------------|
E ------------------------|------------------------|------------------------|------------------------|


Song Progression:

Intro
Verse
Chorus
Verse
Chorus
Bridge
Final Chorus (x2)
Comments