Grand Funk Railroad - Were An American Band Chords & Tabs

 

Were An American Band Chords & Tabs

Grand Funk Railroad Chords & Tabs

Version: 1 Type: Tab 0 ratings
1 star 2 stars 3 stars 4 stars 5 stars
comments

Were An American Band Tab

Hey, i listened to this song carefully and found were i made my mistakes in my previous 
So here it is, corrected and prefected. Except little solo bit at the end, i apologize 
that.

    Intro

e|----------------------------------------------------------|
B|----------------------------------------------------------|
G|-5-777~--5h77-5h77-5h77-5h77--7h9~-9-12-9-7-7h9-9-12-9-7--|
D|----------------------------------------------------------|
A|----------------------------------------------------------|
E|----------------------------------------------------------|

        Intro (continued)

e|-----------------------------------------------------------|
B|-----------------------------------------------------------|
G|--5~--7~---5h7-5h7-5h7-5h7--10-10--5h7-5h7-5h7-5h7-5h7-5~--|
D|-----------------------------------------------------------|
A|-----------------------------------------------------------|
E|-----------------------------------------------------------|

  Near the end of the intro there is alot of changing notes which i couldnt quite catch. 
you play it that way, you can hadly tell.Sorry.


    K now heres the first verse.


e|-----------------------------------------------------|
B|-----------------------------------------------------|
G|--7-7--7xxxx--7-7--7xxxx--5-x--5-5-x--5-5--12-10-9-5-|
D|--7-7--7xxxx--7-7--7xxxx--5-x--5-5-x--5-5--12-10-9-5-|
A|--5-5--5xxxx--5-5--5xxxx--3-x--3-3-x--3-3--10-8--7-3-|
E|-----------------------------------------------------|

  Out on the road for forty days,last night in middle rock put me in haze.
e|------------------------------------------------------------------------|
B|------------------------------------------------------------------------|
G|---7-7----7xxxx----7-7----7xxxx--5x----5--5x---5--5--12---10----9-------|
D|---7-7----7xxxx----7-7----7xxxx--5x----5--5x---5--5--12---10----9-------|
A|---5-5----5xxxx----5-5----5xxxx--3x----3--3x---3--3--10----8----7-------|
E|------------------------------------------------------------------------|

Sweet sweet connie, doin her act,she had that whole show and thats a natural fact.
e|------------------------------------------------------------------------|
B|------------------------------------------------------------------------|
G|---7-7----7xxxx----7-7----7xxxx--5x----5--5x---5--5--12---10----9-------|
D|---7-7----7xxxx----7-7----7xxxx--5x----5--5x---5--5--12---10----9-------|
A|---5-5----5xxxx----5-5----5xxxx--3x----3--3x---3--3--10----8----7-------|
E|------------------------------------------------------------------------|

  Playin all night, with freddie king, ive got to tell you, pokers his thing. Booze and 
keep me right. As long as we can make it to the show tonight.
e|--------------------------------------------------------------------|
B|--------------------------------------------------------------------|
G|--12-12-12-12--7-7-7-7--12-12-12-12--7-7-7-7--12-12-12-12--7-7-7-7--|
D|--12-12-12-12--7-7-7-7--12-12-12-12--7-7-7-7--12-12-12-12--7-7-7-7--|
A|--10-10-10-10--5-5-5-5--10-10-10-10--5-5-5-5--10-10-10-10--5-5-5-5--|
E|--------------------------------------------------------------------|
 (continued)
   |--------------------|
   |--------------------|
   |-5-5-5-5--7-7-7-7---|
   |-5-5-5-5--7-7-7-7---|
   |-3-3-3-3--5-5-5-5---|
   |--------------------|

        Chorus

Were an american band.. were an american band.. were comin to your town, well help you 
it down, were an american band.
[ Tab from: http://www.guitartabs.cc/tabs/g/grand_funk_railroad/were_an_american_band_tab.html ]
e|-----------------------------------------------------------------------|
B|-----------------------------------------------------------------------|
G|--7-7-7-7-7-7-7-7--5-5-5-5-5-5-5-5--3-3-3-3--5-5-5-5--7-7-7-7-7-7-7-7--|
D|--7-7-7-7-7-7-7-7--5-5-5-5-5-5-5-5--3-3-3-3--5-5-5-5--7-7-7-7-7-7-7-7--|
A|--5-5-5-5-5-5-5-5--3-3-3-3-3-3-3-3--1-1-1-1--3-3-3-3--5-5-5-5-5-5-5-5--|
E|-----------------------------------------------------------------------|


Four young chiquitas, in Omaha, waitin for the band to return from the show.
e|------------------------------------------------------------------------|
B|------------------------------------------------------------------------|
G|---7-7----7xxxx----7-7----7xxxx--5x----5--5x---5--5--12---10----9-------|
D|---7-7----7xxxx----7-7----7xxxx--5x----5--5x---5--5--12---10----9-------|
A|---5-5----5xxxx----5-5----5xxxx--3x----3--3x---3--3--10----8----7-------|
E|------------------------------------------------------------------------|

Feelin good, feelin right, its saturday night. The hotel detective he was out of sight.
e|------------------------------------------------------------------------|
B|------------------------------------------------------------------------|
G|---7-7----7xxxx----7-7----7xxxx--5x----5--5x---5--5--12---10----9-------|
D|---7-7----7xxxx----7-7----7xxxx--5x----5--5x---5--5--12---10----9-------|
A|---5-5----5xxxx----5-5----5xxxx--3x----3--3x---3--3--10----8----7-------|
E|------------------------------------------------------------------------|

Now these fine ladies, they had a plan. They were out to meet the boys in the band. They 
"Comon dudes, lets get it on". And we proceeded to tear that hotel down!
e|--------------------------------------------------------------------|
B|--------------------------------------------------------------------|
G|--12-12-12-12--7-7-7-7--12-12-12-12--7-7-7-7--12-12-12-12--7-7-7-7--|
D|--12-12-12-12--7-7-7-7--12-12-12-12--7-7-7-7--12-12-12-12--7-7-7-7--|
A|--10-10-10-10--5-5-5-5--10-10-10-10--5-5-5-5--10-10-10-10--5-5-5-5--|
E|--------------------------------------------------------------------|
  (continued)
   |--------------------|
   |--------------------|
   |-5-5-5-5--7-7-7-7---|
   |-5-5-5-5--7-7-7-7---|
   |-3-3-3-3--5-5-5-5---|
   |--------------------|


Were an american band.. were an american band.. were comin to your town, well help you 
it down, were an american band.

e|-----------------------------------------------------------------------|
B|-----------------------------------------------------------------------|
G|--7-7-7-7-7-7-7-7--5-5-5-5-5-5-5-5--3-3-3-3--5-5-5-5--7-7-7-7-7-7-7-7--|
D|--7-7-7-7-7-7-7-7--5-5-5-5-5-5-5-5--3-3-3-3--5-5-5-5--7-7-7-7-7-7-7-7--|
A|--5-5-5-5-5-5-5-5--3-3-3-3-3-3-3-3--1-1-1-1--3-3-3-3--5-5-5-5-5-5-5-5--|
E|-----------------------------------------------------------------------|


Were an american band.. were an american band.. were comin to your town, well help you 
it down, were an american band.

e|-----------------------------------------------------------------------|
B|-----------------------------------------------------------------------|
G|--7-7-7-7-7-7-7-7--5-5-5-5-5-5-5-5--3-3-3-3--5-5-5-5--7-7-7-7-7-7-7-7--|
D|--7-7-7-7-7-7-7-7--5-5-5-5-5-5-5-5--3-3-3-3--5-5-5-5--7-7-7-7-7-7-7-7--|
A|--5-5-5-5-5-5-5-5--3-3-3-3-3-3-3-3--1-1-1-1--3-3-3-3--5-5-5-5-5-5-5-5--|
E|-----------------------------------------------------------------------|


 And there ye have it, except for solo, id say this sounds hella good. I appreciate your 
and advise, plz contact me at DragonFighter989@aol.com

Phoo
Comments