Grand Funk Railroad - Sins A Good Mans Brother Chords & Tabs

 

Sins A Good Mans Brother Chords & Tabs

Grand Funk Railroad Chords & Tabs

Version: 2 Type: Tab 0 ratings
1 star 2 stars 3 stars 4 stars 5 stars
comments

Sins A Good Mans Brother Tab

   
----------------------------------------------------------------------------
			     SINS'S A GOOD MAN'S BROTHER
				GRAND FUNK RAILROAD 
				Album: CLoser to Home
----------------------------------------------------------------------------
Tabbed by: Jody DeBernardo
Email:jdeberna@telusplanet.net

Tuning:E

  acoustic							play 2 x
e|-0---------0-----0-----0-----0-----0-----0-----0-----0--------------0--0--|
B|-0---------0-----0-----0-----0-----0-----0-----0-----0--------------0--0--|
G|-13--------13----13----11----11----11----11----11----11----11-11-11-13-13-|
D|-14--14----14----14----14----14----14----13----13----13----13-14-14-14-14-|
A|-14--14-14-14-14-14-13-13-13-13-13-13-12-12-12-12-12-12-12-12-13-13-14-14-|
E|--------12----------------------------------------------------------------|

  electric
e|--------------------------------------------------------------------------|
B|--------------------------------------------------------------------------|
G|--------------------------------------------------------------------------|
D|--------------------------------------------------------------------------|
A|------------------------------------------------------------------------5-|
E|--------------------------------------------------------------------5/7---|


e|--------------------------------------------------------------------------|
B|--------------------------------------------------------------------------|
G|----7---------------------------------------------------------------------|
D|-7/9---2-------0---0h2-0h2-------0-2-0-------------0---0h2-0h2------0-2-0-|
A|-------2---0/2---2-----------0/2-------2-0-----0/2---2----------0/2-------|
E|-------0-------------------0---------------3-0----------------0-----------|

e|-------------------------------------------------------------------------|
B|-------------------------------------------------------------------------|
G|-------------------------------------------------------------------------|
D|-------------0---0h2-0h2-------0-2-0-------------0---0h2-0h2---2-2-2-2-2-|
A|-2-0-----0/2---2-----------0/2-------2-0-----0/2---2---------------------|
E|-----3-0-----------------0---------------3-0-----------------0-----------|


e|------------------------------------------------------------------------|
B|------------------------------------------------------------------------|
G|-9----------9\7---------------------------------------------------------|
D|-9----------9\7----------------0-------0---0h2-0h2-------0-2-0----------|
A|-7----------7\5------------0h2-----0/2---2-----------0/2-------2-0------|
E|---------------------------------0-----------------0---------------3----|
   Ain't..
   Things..
   Ain't..
   This..
   If you..
e|----------------------------------------------------------------------|
B|----------------------------------------------------------------------|
G|----------------------------------------------------------------------|
D|--------0---0h2-0h2-------0-2-0-------------0---0h2-0h2---2-2-2-2-2---|
A|----0/2---2-----------0/2-------2-0-----0/2---2-----------------------|
E|-0------------------0---------------3-0-----------------0-------------|

			solo guitar 1
e|---------------------------------------------------15br-12----------------|
B|----------------------------------------12-----------------15-12-------12-|
G|-9----9\7----7/9----9/12----12----12-14---12---------------------12h14----|
D|-9----9\7----7/9----9/12-------14------------14-12------------------------|
A|-7----7\5----5/7----7/10--------------------------------------------------|
E|--------------------------------------------------------------------------|
			     guitar 2
e|--------------------------------------------------------------------------|
B|--------------------------------------------------------------------------|
G|--------------------------------------------------------------------------|
D|---------------------------------4-5--7--5--4-------------------5---------|
A|-----------------------------7~----------------/5~-------5-5h7-----7--5h7-|
E|----------------------------------------------------5/7-------------------|

 guitar 1
e|------------------12----------------------------------------------|
B|---------------12---12--------------------------------------------|
G|-12------12-14--------12-----------------------------------12-----|
D|----14~-----------------12~--------12-12h14-12h14p12----12----14~-|
A|-----------------------------12/14-------------------14-----------|
E|------------------------------------------------------------------|
 guitar 2
e|------------------------------------------------------------------|
B|------------------------------------------------------------------|
G|------------------------------------------------------------------|
D|-------4-5--7--5--4--------------------------5--------------------|
A|----7~----------------/5~------------5--5h7-------7---5h7------7~-|
E|-----------------------------5/7----------------------------------|

 guitar 1
e|------------------------------------------------------------12----------|
B|-------12----------15b-15-12--------15--------------------12---12-------|
G|-12-14----12------------------12h14b---12h14-12------12-14-------12-----|
D|------------14-12~------------------------------14~-----------------12~-|
A|------------------------------------------------------------------------|
E|------------------------------------------------------------------------|

 guitar 2
e|------------------------------------------------------------------------|
B|------------------------------------------------------------------------|
G|------------------------------------------------------------------------|
D|-4-5--7--5--4--------------------5--------------------4-5--7--5--4-/7~--|
A|---------------/5~------5--5h7-------7---5h7----7~----------------------|
E|-------------------5/7--------------------------------------------------|
[ Tab from: http://www.guitartabs.cc/tabs/g/grand_funk_railroad/sins_a_good_mans_brother_tab_ver_2.html ]
guitar 1
e|--------------------------------------------------------------------|
B|--------------------12-15-12-15b-15b-15br-12-15-15b-15b-15-12----12-|
G|----------------14b-------------------------------------------14----|
D|--------------------------------------------------------------------|
A|--------------------------------------------------------------------|
E|--------------------------------------------------------------------|
guitar 2          				repeat rhythm pattern
e|---------------------------------------------------------------------|
B|---------------------------------------------------------------------|
G|-----------------9----9/7------7\9------9/12----9---9/7---7\9---9/12-|
D|--7--5--4--------9----9/7------7\9------9/12----9---9/7---7\9---9/12-|
A|-----------7--5--7----7/5------5\7------7/10----7---7/5---5\7---7/10-|
E|---------------------------------------------------------------------|


guitar 1
e|---------------------------------------------------------------------|
B|-15--------------12--------------12------------12--------------------|
G|----12-----12/14----12----12/14-----12---12/14----14br---14brp12-----|
D|------------------------------------------------------------------14-|
A|---------------------------------------------------------------------|
E|---------------------------------------------------------------------|

guitar 1
e|--12-15p12-12-15p12-12-15b--15brp12--12-------------------------|
B|-----------------------------------15----12h15b-15b-15-12-15b---|
G|----------------------------------------------------------------|
D|----------------------------------------------------------------|
A|----------------------------------------------------------------|
E|----------------------------------------------------------------|

guitar 1
e|-12-15p12----12-12-15p12---12-12-15p12---12-12-15p12----12-12-15p12-|
B|----------15------------15------------15-------------15-------------|
G|--------------------------------------------------------------------|
D|--------------------------------------------------------------------|
A|--------------------------------------------------------------------|
E|--------------------------------------------------------------------|

guitar 1
e|----12-12-15p12-----12-12-15b-15-12--12h15p12----12--------------|
B|-15-------------15----------------------------15---15b-15b-15-12-|
G|-----------------------------------------------------------------|
D|-----------------------------------------------------------------|
A|-----------------------------------------------------------------|
E|-----------------------------------------------------------------|

guitar 1
e|----------------------------------------------------------------|
B|----------------------------------------------------------------|
G|--14br-12\------------------------------------------------------|
D|------------2~------2/4----4br-4\2~------2/4---4br\-------0-----|
A|------------------------------------------------------0/2---2---|
E|----------------------------------------------------0-----------|


e|--------------------------------------------------------------------|
B|--------------------------------------------------------------------|
G|--------------------------------------------------------------------|
D|--0h2-0h2-------0-2-0---------------0---0h2-0h2-------0-2p0---------|
A|------------0/2-------2-0-------0/2---2-----------0/2-------2p0-----|
E|---------0----------------3-0-------------------0---------------3p0-|
				 
 
e|-----------------------------------------------------------------|
B|-----------------------------------------------------------------|
G|-9-----------9\7-------------------------------------------------|
D|-9-----------9\7---------0-------0---0h2-0h2-------0-2-0---------|
A|-7-----------7\5-----0h2-----0/2---2-----------0/2-------2-0-----|
E|---------------------------0-----------------0---------------3---|
   One just...


 Fill #1

e|-12----12----12-----------------------------------------------|
B|---15b---15b---15b--15b-15br-15-12----------------------------|
G|-----------------------------------14brp12--14b---------------|
D|--------------------------------------------------------------|
A|--------------------------------------------------------------|
E|--------------------------------------------------------------|

  #2
e|-12-15p12---12-12-15p12----12-12-15p12----12-12-15p12----12-12-15p12----12|
B|---------15-------------15-------------15-------------15-------------15---|
G|--------------------------------------------------------------------------|
D|--------------------------------------------------------------------------|
A|--------------------------------------------------------------------------|
E|--------------------------------------------------------------------------|

					#3
e|-15b-15-12--------------------------------------------------------|
B|-----------15b-15b-15-12------------------------------------------|
G|-------------------------14-12------------------7-------7--7--9---|
D|-------------------------------------------7/9----7/9-------------|
A|------------------------------------------------------------------|
E|------------------------------------------------------------------|

  #4
e|-15b-15b-15br-12h15p12----12----12---12-----12-------------------|
B|-----------------------15---15b---15---15b----15-12--------------|
G|----------------------------------------------------14-12-14--12-|
D|-----------------------------------------------------------------|
A|-----------------------------------------------------------------|
E|-----------------------------------------------------------------|

  #5
e|----------------------------------------------------------------------|
B|-15-------------------15-------------------15-------------------------|
G|---14brp12-12-12---------14brp12-12-12--------14brp12-12-12------12---|
D|----------------14p12-----------------14p12----------------14p12---14-|
A|----------------------------------------------------------------------|
E|----------------------------------------------------------------------|


e|-----------------------------------------------------------------------|
B|-----------------------------------------------------------------------|
G|---------------------------------------9----11---12---14---14\9---9/11-|
D|-------0---0h2-0h2-----2-2-2-2-2---------------------------------------|
A|---0/2---2-----------------------------7----9----10---12---12\7---7/9--|
E|-0-----------------0---------------------------------------------------|

e|-------------------------------------------------------------------|
B|----------------10--10\--------------------------------------------|
G|-11/12--12/14\--11--11\-------------12------------------------12---|
D|----------------12--12\----------12-12----12---------------12-12---|
A|-9/10---10/12\-------------12/14-------15----14------12/14---------|
E|----------------10--10\-------------------------15-----------------|

e|------------------------------------------------------------------------|
B|-----------------------------------------------------------------12--12-|
G|---------------------12------------------------12----------------13--13-|
D|----12------------12-12-----12--------------12-12-----12---------14--14-|
A|-15---14----12/14-------15-----14-----12/14--------15----14-------------|
E|---------15-----------------------15------------------------15---12--12-|


| /  slide up
| \  slide down
| h  hammer-on
| p  pull-off
| ~  vibrato
| +  harmonic
| x  Mute note
=============================================================================
Comments