Grand Funk Railroad - Sins A Good Mans Brother Chords & Tabs

 

Sins A Good Mans Brother Chords & Tabs

Grand Funk Railroad Chords & Tabs

Version: 1 Type: Tab 0 ratings
1 star 2 stars 3 stars 4 stars 5 stars
comments

Sins A Good Mans Brother Tab

   
-------------------------------------------------------------------------------
			     "Sin's a Good Man's Brother"
                                  Grand Funk Railroad
-------------------------------------------------------------------------------
Tabbed by:rocker for the Rock

Tuning:Standard

Intro:
    E  F#  A  E   (twice)


e|-------------------------------------------------------------------------------|
B|-------------------------------------------------------------------------------|
G|-------------------------------------------------------------------------------|
D|-------7-----------------------------------------------------------------------|
A|-----5-------------------------------------------------------------------------|
E|-5-7---------------------------------------------------------------------------|

Riff:
e|-------------------------------------|
B|-------------------------------------|
G|-------------------------------------|
D|-------------------------------------|
A|-------5---5h7-5h7-------7p5---------|
E|-0-5h7---7---------0-5h7------7-5-3--|

On the 4th time,

e|--------------------------------------------------------------------------------|
B|--------------------------------------------------------------------------------|
G|--------------------------------------------------------------------------------|
D|--------------------------------------------------------------------------------|
A|-------5---5h7-5h7-------7--7p5---7```------------------------------------------|
E|-0-5h7---7---------0-5h7--------------------------------------------------------|
[ Tab from: http://www.guitartabs.cc/tabs/g/grand_funk_railroad/sins_a_good_mans_brother_tab.html ]
Transition I:
e|---------------------------------------------------------------------------------|
B|---------------------------------------------------------------------------------|
G|---------------------------------------------------------------------------------|
D|2/X---0--X-----------------------------------------------------------------------|
A|2/X---0--X-----------------------------------------------------------------------|
E|0/X---0--X-----------------------------------------------------------------------|


Transition II:
e|---------------------------------------------------------------------------------|
B|---------------------------------------------------------------------------------|
G|---------------------------------------------------------------------------------|
D|2-?*--5--------------------------------------------------------------------------|
A|2-?*--5--------------------------------------------------------------------------|
E|0-?*--3--------------------------------------------------------------------------|

     *this is a weird tremolo-bend thing, but if you've got a fixed bridge just do a 
like  Trans. I.

On the last time, combine both transitions:
e|-----------------------------------------------------------------------------------|
B|-----------------------------------------------------------------------------------|
G|-----------------------------------------------------------------------------------|
D|-2/0---2-?--5----------------------------------------------------------------------|
A|-2/0---2-?--5----------------------------------------------------------------------|
E|-0/0---0-?--3----------------------------------------------------------------------|


Okay, this is where the solo starts (2:01), but I can't figure it out (sorry).  If 
else can, please submit it for us tone-deaf people!
Comments