Grand Funk Railroad - Please Don't Worry Chords & Tabs

 

Please Don't Worry Chords & Tabs

Grand Funk Railroad Chords & Tabs

Version: 1 Type: Chords 0 ratings
1 star 2 stars 3 stars 4 stars 5 stars
comments

Please Don't Worry Chords

   
#----------------------------------PLEASE NOTE---------------------------------#
#This file is the author's own work and represents their interpretation of the #
#song. You may only use this file for private study, scholarship, or research. #
#------------------------------------------------------------------------------#

ARTIST: Grand Funk Railroad
SONG: Please Don't Worry
ALBUM: Grand Funk (Red Album), 1969
FROM: Lukas Lechner, Woergl, Austria
E-MAIL: luggi69@web.de
DATE: Nov 17 2001



PLEASE DON'T WORRY
***********************
writtten by Mark Farner





used chords:

   C5   C    C#5  Bb5   F    Eb

e-------8----------------------------
B-------8---------------10---8-------
G-------9---------------10---8-------
D---10--10---11----8----10---8-------
A---10--10---11----8----8----6-------
E---8---8----9-----6-----------------


Intro:

C5 C#5  C5  Bb5         2 times

then:

C   F Eb   C  ---
|
C  F Eb Bb C|
|----- VERSE CHORDS PATTERN
C   F Eb   C|
|  
C  F Eb Bb C  ---

NOTE: you can simplify it by playing the 2nd and 4th 
chord line like the 1st and the 3rd one.



Verse (play with verse chords pattern):



Chorus:

     C F   C    C                      Bb Eb Bb  Bb

e----------------------------------------------------------------
B----5h6---5----5----------------------3h4---3---3---------------
G----5-5---5----5----------------------3-3---3---3---------------
D----5h7---5----5----------------------3h5---3---3---------------
A------------5---------------------------------3-----------------
E----------------------------------------------------------------
                Please don't worry--------
[ Tab from: http://www.guitartabs.cc/tabs/g/grand_funk_railroad/please_dont_worry_crd.html ]
[h...hammer on]  NOTE: for the hammer ons, bar
        your index finger on the
     C F   C    C                      Bb Eb Bb  Bb   C5strings D, G and B

e--------------------------------------------------------------
B----5h6---5----5----------------------3h4---3---3-------------
G----5-5---5----5----------------------3-3---3---3-------------
D----5h7---5----5----------------------3h5---3---3---------10--
A------------5---------------------------------3-----------10-- ...  play first part of
E----------------------------------------------------------8---     the intro again
                                                 (C5 C#5  C5  Bb5  2 times)

C   F Eb   C
C  F Eb Bb C
C   F Eb   C
C  F Eb Bb C

Verse:


Chorus again 
plus first part of intro (solo over that)

then fast part (I like most):

play 8 times very fast:

    C     Bb    F

e---8----------------
B---8-----11---10----
G---9-----10---10----
D---10----12---10----
A---10---------------
E---8----------------


C   F Eb   C
C  F Eb Bb C
C   F Eb   C
C  F Eb Bb C

Verse:


Chorus again  |
plus first part of intro        |---------3 times


for the outro, play chorus slowly, hold Bb
and freak to end with C.




I know why I like Grand Funk...


_________________________________________________________
For corrections, questions, comments and suggestions    |
e-mail me at luggi69@web.de        |
________________________________________________________|
"Won't you tell me, where have all the good times gone?"|
-Ray Davies, 1965|
________________________________________________________|
"...enjoy a time when rock was still about making music |
for fun, not money for corporations."|
________________________________________________________|
Comments