Grand Funk Railroad - Mr Limousine Driver Chords & Tabs

 

Mr Limousine Driver Chords & Tabs

Grand Funk Railroad Chords & Tabs

Version: 1 Type: Tab 0 ratings
1 star 2 stars 3 stars 4 stars 5 stars
comments

Mr Limousine Driver Tab

   
-----------------------------------------------------------------------------
			Mr Limousine Driver - Grand Funk Railorad
			Album: Grand Funk
-----------------------------------------------------------------------------
Tabbed by: Jody DeBernardo
Email: jdeberna@telusplanet.net

Tuning:E

   E        B        F	       C
e|-------------------------------------------------------------------------|
B|-9-----------------10---10\------------------------------------3---------|
G|-9--------8--------10---10\--9-----------1---2--2-2-0------1---2-2-------|
D|-9--------9--------10---10\--10------0h2-2-x-2--2-2-0--0h2-2-x-0-2---0h2-|
A|-7--------9--------8----8\---10------0h2-2-x-0--0-0----0h2-2-x---0---0h2-|
E|----------7------------------8-------0---0-------------0---0---------0h2-|
								       thumb

			    				continue pattern
e|-----------------------------------------------------------------------|
B|---------------------3-------------------------------3-----------------|
G|-1---2--2-2-0--------2-2-------1---2--2-2-0----------2-2-------1---2---|
D|-2-x-2--2-2-0--0h2-x-0-2---0h2-2-x-2--2-2-0--0h2-2-x-0-2---0h2-2-x-2---|
A|-2-x-0--0-0----0h2-x---0---0h2-2-x-0--0-0----0h2-2-x---0---0h2-2-x-0---|
E|-0-------------0-----------0---0-------------0---0---------0---0-------|

							     Hey        mister
  Fill 1				 Fill 2
e|--------15b-15b------------------------------12-----------------------|
B|-10/12-----------------------------------------15b-15b-15b(15)--12----|
G|--------------14b-14b-14b-14-12------------------------------------14-|
D|--------------------------------14------------------------------------|
A|----------------------------------------------------------------------|
E|----------------------------------------------------------------------|


  	    E			      B		 	       F
e|----------0-------------------------2------------------------1---------|
B|----------0-------------------------4------------------------1---------|
G|----------1-------------------------4------------------------2---------|
D|----------2-------------------------4------------------------3---------|
A|----------2-------------------------2------------------------3---------|
E|----------0--------------------------------------------------1---------|
  Can you hear ..
        So why make ..

   F	   	        C	   D*
e|-------------------------------------------|
B|----------------------1----------3---------|
G|----------------------0----------0---------|
D|----------------------2----------4---------|
A|----------------------3----------5---------|
E|-------------------------------------------|
     				* Second time only

  solo
e|-------12-----------------------------------------------------------------|
B|----12----15~-15~-15~-15~--15-14-15-14-15-14-15-14-12----15-12------------|
G|-14---------------------------------------------------14------14-12sb12sb-|
D|--------------------------------------------------------------------------|
A|--------------------------------------------------------------------------|
E|--------------------------------------------------------------------------|


e|---------------------------------12-15b-15-12--12-------------------------|
B|----------------12-15p12-12-15-12------------12---15b(15)-15b-15p12--12-15|
G|----------12-14----------------------------------------------------14-----|
D|-14-12-14-----------------------------------------------------------------|
A|--------------------------------------------------------------------------|
E|--------------------------------------------------------------------------|

e|----------------------------------------------------------12-15b-15-12--12|
B|-15~-15~-15~-15p14-15-14-12--------12----------------12-15------------15--|
G|---------------------------14-12h14--12-14p12-14-12-----------------------|
D|--------------------------------------------------------------------------|
A|--------------------------------------------------------------------------|
E|--------------------------------------------------------------------------|


e|--------------------------------------------------------------------------|
B|-15b-14-12---------------------15b-15b-15b(15)-14-12----------------------|
G|----------14-12----12----12-12----------------------14b-14-12------12sb12-|
D|---------------14-----14--------------------------------------12h14-------|
A|--------------------------------------------------------------------------|
E|--------------------------------------------------------------------------|


e|----------------------------------------------------12--------------------|
B|--------------------------------------------------12--15b-14b-14---15--15-|
G|--------12-12h14-14-12--------12----------12-12h14b--------------14b-14b--|
D|14p12h14--------------14p12h14---14p12h14---------------------------------|
A|--------------------------------------------------------------------------|
E|--------------------------------------------------------------------------|


e|--------------------------------------------------------------------------|
B|-15----15-----15----------------------------------------------------------|
G|----14b---14b----14b(14)-12---------12b-----------------------------------|
D|----------------------------14-12-14---14-12-14--14p12----12--------------|
A|-------------------------------------------------------14-----12p10----10-|
E|--------------------------------------------------------------------12----|

[ Tab from: http://www.guitartabs.cc/tabs/g/grand_funk_railroad/mr_limousine_driver_tab.html ]
e|----------------------------------------------------------------|
B|--------------------------3------------------------------3------|
G|-----1---2--2-2-0-----1---2-2-------1---2--2-2-0-----1---2-2----|
D|-0h2-2-x-2--2-2-0-0h2-2-x-0-2---0h2-2-x-2--2-2-0-0h2-2-x-0-2----|
A|-0h2-2-x-0--0-0---0h2-2-x---0---0h2-2-x-0--0-0---0h2-2-x---0----|
E|-0-0-0------------0-0-0---------0-0-0------------0-0-0----------|

  Fill 3				4
e|--------------------------------------------------------------------------|
B|----------------------------------------12-12-----------------------------|
G|------12-14b(14)-14p12---12------------------14-14-12sb-12----------------|
D|-12h14----------------14----14-----------------------------14-12-14-12-14-|
A|--------------------------------------------------------------------------|
E|--------------------------------------------------------------------------|

  5
e|-----12---------------------------15-15b(15)12----------------------------|
B|---12--12h15-15-15b-15b-15b(15)12-------------15p12-15-15b-15b------------|
G|-14-----------------------------------------------------------------------|
D|--------------------------------------------------------------------------|
A|--------------------------------------------------------------------------|
E|--------------------------------------------------------------------------|

   6
e|--------------------------------------------------------------------------|
B|--------------------------------------------------------------------------|
G|------12-12---12-12-12-12-12-12-12-14------12-12--12-12-12-12-12/14-------|
D|-12---12-12---12-12-12-12-12-12-12-14------12-12--12-12-12-12-12/14-------|
A|-12h14------14------------------------12h14-----14------------------------|
E|--------------------------------------------------------------------------|

  outro solo
e|---------------------12-------------------------------12------------------|
B|-15~15~15-14-15-14-15--15-14-15-15-14-15---15-15-14-15--15-14-15-14-15-14-|
G|--------------------------------------------------------------------------|
D|--------------------------------------------------------------------------|
A|--------------------------------------------------------------------------|
E|--------------------------------------------------------------------------|

e|--------------------------------------------------------------------------|
B|-12--14-12----------------------------------------15----15-----15-----15--|
G|---14-----14-12-14-12------12--14-12--------12-14b---14b---14b----14b-----|
D|---------------------14-14---14-----14-12-14------------------------------|
A|--------------------------------------------------------------------------|
E|--------------------------------------------------------------------------|

e|-------------------------------------------------------------12-15b-15b-12|
B|-----15-----15-----------------------------------------12-15--------------|
G|-14b----14b----14b(14)-12---14--12---------------12h14b-------------------|
D|--------------------------14--14--14p12-14p12-14--------------------------|
A|--------------------------------------------------------------------------|
E|--------------------------------------------------------------------------|


e|---12------12--12-15b-15b-12--12--12--17b-17b(17)p15--15--15--15-15-------|
B|-15--15/17---15-------------15--15--15-------------------17-17------17-15-|
G|--------------------------------------------------------------------------|
D|--------------------------------------------------------------------------|
A|--------------------------------------------------------------------------|
E|--------------------------------------------------------------------------|

e|-20-20b-20b-20b-17-20b--17-20b-20b-20b-20b--12/15-12-----12---------------|
B|----------------------------------------------------15p12---15b(15)p12----|
G|---------------------------------------------------------------------14-12|
D|--------------------------------------------------------------------------|
A|--------------------------------------------------------------------------|
E|--------------------------------------------------------------------------|

e|--------------------------------------------------------------------------|
B|----------------15---15---------------------------------------------------|
G|----------12-14b--14b--14brp12-14brp12-12--------------14b-14b-14b(14)--12|
D|-14p12-14---------------------------------14-12-14-12---------------------|
A|--------------------------------------------------------------------------|
E|--------------------------------------------------------------------------|

e|--------------------------------------------------------------------------|
B|--------------------------------------------------------------------------|
G|-14b--14b-14b-14b14b-12-------------------------------------------------12|
D|-----------------------14--14p12-12-12-12-11--12-12-11----12-11-12/14-14--|
A|-------------------------------------------------------14-----------------|
E|--------------------------------------------------------------------------|

e|--------------------------------------------------------12----------------|
B|--------12-15b-15p12-----12--------------------------15b---15p12----------|
G|----14b--------------14b---14p12-12--14--12----------------------14-12----|
D|-14--------------------------------14--14---14-12-14-------------------14-|
A|--------------------------------------------------------------------------|
E|--------------------------------------------------------------------------|

e|---------------------|
B|---------------------|
G|------14b--12--------|
D|-14-12---------------|
A|---------------------|
E|---------------------|

| (12) note heard but not picked
| sb slight bend
| B  bend
| br bend note and release
| /  slide up
| \  slide down
| h  hammer-on
| p  pull-off
| ~  vibrato
| +  harmonic
| x  Mute note
===============================================================================
Comments