Grand Funk Railroad - Inside Looking Out Chords & Tabs

 

Inside Looking Out Chords & Tabs

Grand Funk Railroad Chords & Tabs

Version: 1 Type: Bass Tab 0 ratings
1 star 2 stars 3 stars 4 stars 5 stars
comments

Inside Looking Out Bass Tab

Inside Looking Out - Grand Funk Railroad

  intro
   (x8)   
G|-------|--------------7--7-03-------------7--7-03-------------7--7-03-------------5/7-530--|
D|-------|3/555555555555-55-5--3555555555555-55-5--3555555555555-55-5--3555555555555---------|
A|-------|-----------------------------------------------------------------------------------|
E|3------|-----------------------------------------------------------------------------------|


G|------------------------------------------------------------|
D|5-55533---5-55533-----5533---5-55533-----5533---5-55533-----|
A|-------345-------543------345-------543------345-------543--|
E|--------------------33-----------------33-------------------|


G|-------------------------3-------------------------------------------|
D|--------------55303-5-5-5-5-53035-------------------3/55555555555555-|
A|-----1---------------------------345---------------------------------|
E|3-3-3-3-31013-----------------------3333333333333333-----------------|

[ Tab from: http://www.guitartabs.cc/tabs/g/grand_funk_railroad/inside_looking_out_btab.html ]
G|----------------------7--7-7-7--7-7-7--7-7-7--7-7-7--7-7-7------------|
D|3455555534555555345555-55-5-5-55-5-5-55-5-5-55-5-5-55-5-5-55--------34|add on the riff above 
A|--------------------------------------------------------------334455--|plus restart the song 
E|----------------------------------------------------------------------|


guitar solo
  (repeat 60 
something times)                                  
G|-----|          G|-------------------------------------------------------------------|
D|-----|          D|555055-54034555055-54034555055-54034555055-54034555055-54034555055-|
A|-----|          A|-------------------------------------------------------------------|
E|3----|          E|-------------------------------------------------------------------|

G|-------------------------------------------------------------------------------|
D|5-4-3-4-5-4-3-4-5-4-3-4-5-4-3-4-5-4-3-4-5-4-3-4-5-4-3-4-5-4-3-4-55\--------55--|
A|-------------------------------------------------------------------------------|
E|---------------------------------------------------------------------33-33-----|

   repeat a bunch of times then switch to the
    original riff of this
G|-------------------3------------------------|
D|555055-540345550553---555055-54034555055-53-| I've already given you all you need to play  
A|--------------------------------------------| the ending
E|--------------------------------------------|

tabbed by Achilles (blue_sincere@hotmail.com)

Comments