Grand Funk Railroad - Hooked On Love Chords & Tabs

 

Hooked On Love Chords & Tabs

Grand Funk Railroad Chords & Tabs

Version: 1 Type: Tab 0 ratings
1 star 2 stars 3 stars 4 stars 5 stars
comments

Hooked On Love Tab

   
-----------------------------------------------------------------------------
			   Hooked on Love - Grand Funk Railroad
			   Album - CLoser to Home
-----------------------------------------------------------------------------
Tabbed by: Jody DeBernardo
Email: jdeberna@telusplanet.net

Tuning:E
		      A				          A  D        D# E
e|--------------------------------------------------------------------------|
B|--------------------------------------------------------------------------|
G|-----------------------------------------------------------7-7--7-7-8--9--|
D|--------------------7-----------------------------------7--7-7--7-7-8--9--|
A|---9b-9b--7--9\7----7----------7-7h9-7-9b---9-7--9\7----7--5-5--5-5-6--7--|
E|-0---------------5--5--5-5-7/9------------0----------5--5-----------------|


e|--------------------------------------------------------------------------|
B|--------------------------------------------------------------------------|
G|------------------------------------------------------------7-7--7-7-8--9-|
D|---------------------7-----------------------------------7--7-7--7-7-8--9-|
A|---9b--9b--7--9\7----7----------7-7h9-7-9b---9-7--9\7----7--5-5--5-5-6--7-|
E|-0---0------------5--5--5-5-7/9------------0----------5--5----------------|

					
e|--------------------------------------------------------------------------|
B|--------------------------------------------------------------------------|
G|------------------------------------------------------------7-7--7-7-8--9-|
D|---------------------7-----------------------------------7--7-7--7-7-8--9-|
A|---9b--9b--7--9\7----7----------7-7h9-7-9b---9-7--9\7----7--5-5--5-5-6--7-|
E|-0----0-----------5--5--5-5-7/9------------0----------5--5----------------|

   Well did...
   My brothers..

e|--------------------------------------------------------------------------|
B|--------------------------------------------------------------------------|
G|------------------------------------------------------------7-7--7-7-8--9-|
D|---------------------7----------------7------------------7--7-7--7-7-8--9-|
A|----9b-9b--7--9\7----7----------7-7h9---9b---9-7--9\7----7--5-5--5-5-6--7-|
E|-0----0-----------5--5--5-5-7/9------------0----------5--5----------------|



   E     G#7 A7 G#7 A7  D        D# E	  E   G#7 A7 G#7 A7  D        D# E
e|--------------------------------------------------------------------------|
B|--------------------------------------------------------------------------|
G|-9-9----5--6--5---6---7-7--7-7-8--9\----9-9---5--6--5--6---7-7--7-7-8--9\-|
D|-9-9----4--5--4---5---7-7--7-7-8--9\----9-9---4--5--4--5---7-7--7-7-8--9\-|
A|-7-7----6--7--6---7---5-5--5-5-6--7\----7-7---6--7--6--7---5-5--5-5-6--7\-|
E|--------4--5--4---5---------------------------4--5--4--5------------------|
   Hooked..


   E     G#7 A7 G#7 A7 D    A   D     B    D 	    D# E
e|------------------------------------7-------------------|
B|------------------------------------7-------------------|
G|-9-9----5--6--5--6---7-7-------7-7--8----7-7--7-7-8--9--|
D|-9-9----4--5--3--5---7-7--7-7--7-7--9----7-7--7-7-8--9--|
A|-7-7----6--7--5--7---5-5--7-7--5-5--9----5-5--5-5-6--7--|
E|--------4--5--3--5--------5-5-------7-------------------|



        E    G A				    Repeat
e|---------------------------------------------------------------|
B|---------------------------------------------------------------|
G|---------------------------------------------------------------|
D|---------------------------------------------------------------|
A|------7-7--7-7--7-7-7\----7-7--7-7--7-7-7\---7-7--7-7--7-7-7-7-|
E|------0-0--3-5--0-0-3\----0-0--3-5--0-0-3\---0-0--3-5--0-0-3-5-|

[ Tab from: http://www.guitartabs.cc/tabs/g/grand_funk_railroad/hooked_on_love_tab.html ]
   E  G   A    G  E
e|--------------------------------------------------------------------------|
B|----------------------15--15--14------------------------------------------|
G|----------------------16--15--14-12----14-12------------------------------|
D|------------------------------------14------14-12-14----14----------------|
A|-7--7--7--7--7--7-----------------------------------14--------------------|
E|-0--3--5--5--3--0---------------------------------------------------------|


   E		    A	  	     G/A 	      A			repeat
e|--------------------------------------------------------------------------|
B|--------------------------------------------------------------------------|
G|---------------------------------------------------------------------14b--|
D|--------------------------------------------------------------------------|
A|-7-7-7-7-7-7-7-7--7-7-7-7-7-7-7-7--7-7-7-7-7-7-7-7--7-7-7-7-7-7-7-7-------|
E|-0-0-0-0-0-0-0-0--5-5-5-5-5-5-5-5--3-3-3-3-3-3-3-3--5-5-5-5-5-5-5-5-------|


e|--------------12-------------12-------------12--------------12-----15b-15b|
B|-12-15p12-15b---15p12-15-15b---15p12-15-15b----15p12-15-15b---15p12-------|
G|--------------------------------------------------------------------------|
D|--------------------------------------------------------------------------|
A|--------------------------------------------------------------------------|
E|--------------------------------------------------------------------------|



e|-12---12---12---15b-15b--12--12-------------------------------------------|
B|---15---15-----------------15--15-12--------------------------------------|
G|-------------------------------------15-14-12-14p12---12------------------|
D|---------------------------------------------------14----14-14-12-14----12|
A|----------------------------------------------------------------------14--|
E|--------------------------------------------------------------------------|

e|--------------------------------------------------------------------------|
B|--------------------------------------------------------------------------|
G|---------------14b-14b-14p12--12------------------------------------------|
D|--------12b----------------------14-12-14----12---------------12----------|
A|-14-12------------------------------------14-----14-12-----14----12-------|
E|-------------------------------------------------------15-----------15--12|

e|-------------------------------------------------------------------------|
B|-------------------------------------------------------------------------|
G|-----------------------------------12----14-12---------12-14-14b---------|
D|-------------12----14-12----12-14----14-------14-12-14-------------------|
A|-------12-14----14-------14----------------------------------------------|
E|-15-12-------------------------------------------------------------------|

  E		    A	  	     G/A 	      A			
e|-------------------------------------------------------------------------|
B|-------------------------------------------------------------------------|
G|-------------------------------------------------------------------------|
D|-------------------------------------------------------------------------|
A|-7-7-7-7-7-7-7-7--7-7-7-7-7-7-7-7--7-7-7-7-7-7-7-7--7-7-7-7-7-7-7-7------|
E|-0-0-0-0-0-0-0-0--5-5-5-5-5-5-5-5--3-3-3-3-3-3-3-3--5-5-5-5-5-5-5-5------|

 E		    A	  	     G/A 	      A			
e|--------------------------------------------------------------------------|
B|--------------------------------------------------------------------------|
G|--------------------------------------------------------------------------|
D|--------------------------------------------------------------------------|
A|-7-7-7-7-7-7-7-7--7-7-7-7-7-7-7-7--7-7-7-7-7-7-7-7--7--7-7--7-7-----------|
E|-0-0-0-0-0-0-0-0--5-5-5-5-5-5-5-5--3-3-3-3-3-3-3-3--5--5-5--5-5-----------|

  E      G#7 A7 G#7 A7  D        D# E	   E   G#7 A7 G#7 A7  D        D# E
e|--------------------------------------------------------------------------|
B|--------------------------------------------------------------------------|
G|-9-9----5--6--5---6---7-7--7-7-8--9\----9-9---5--6--5---6---7-7--7-7-8--9\|
D|-9-9----4--5--4---5---7-7--7-7-8--9\----9-9---4--5--4---5---7-7--7-7-8--9\|
A|-7-7----6--7--6---7---5-5--5-5-6--7\----7-7---6--7--6---7---5-5--5-5-6--7\|
E|--------4--5--4---5---------------------------4--5--4---5-----------------|
   Hooked..




| /  slide up
| \  slide down
| h  hammer-on
| p  pull-off
| ~  vibrato
| +  harmonic
| x  Mute note
=============================================================================
Comments