Grand Funk Railroad - Feelin Alright Chords & Tabs

 

Feelin Alright Chords & Tabs

Grand Funk Railroad Chords & Tabs

Version: 1 Type: Bass Tab 0 ratings
1 star 2 stars 3 stars 4 stars 5 stars
comments

Feelin Alright Bass Tab

Feelin' Alright - Grand Funk Railroad
[ Tab from: http://www.guitartabs.cc/tabs/g/grand_funk_railroad/feelin_alright_btab.html ]
  (x7) 
G|---------------|----------------------------------------------------------/7-77775----------
D|---------------|-----------------------------------3455-55-555-55-55--------------533-33-33-
A|---5-5-053-032-|---5-5-053-3-344-44-4455-55-555-55------------------55-55-------------------
E|3/5------------|3/5-------------------------------------------------------------------------

              
----------------------------------------/7-77775---------------------------------|
------------------3455-55-555-55-55-------------533-33-33------------------------|
3345-55-55-555-55------------------55-55-----------------33455-------------------|
---------------------------------------------------------------------------------|

tabbed by Achilles (blue_sincere@hotmail.com)

Comments