Grand Funk Railroad - Closer To Home Chords & Tabs

 

Closer To Home Chords & Tabs

Grand Funk Railroad Chords & Tabs

Version: 1 Type: Tab 0 ratings
1 star 2 stars 3 stars 4 stars 5 stars
comments

Closer To Home Tab

   
artist : grand funk railroad  
  song : closer to home - i'm your captain
tabbed by: kris (itskrls@aol.com)
 
    intro: 
e|------------0h1---|-----------0-|
B|--------0h2-0-----|-------0h2-1-|
G|--7-5-4-----------|--7-5-4------|
D|-0-0-0------------|-0-0-0-------| 
A|------------------|-------------|
E|------------------|-------------|
[ Tab from: http://www.guitartabs.cc/tabs/g/grand_funk_railroad/closer_to_home_tab.html ]
  then..   
   D  ?  D  ?
e|-2--3--2--3-|
B|-3--3--3--3-|
G|-2--0--2--0-|
D|-0--0--0--0-|
A|------------|
E|------------|
   play twice, 2nd time with a wah..
        (its also played way later in the song again)

   
  then..
 "everybody,listen to me.."
e|-2-2-0-3-3-3-|
B|-3-3-3-3-3-3-|
G|-2-2-2-0-0-0-|
D|-0-0-0-0-3-2-|
A|---------2-2-|
E|-------------|
  this is played a lot..

 
 thats all i know..
Comments