Grand Funk Railroad - Closer To Home (i'm Your Captain) Chords & Tabs

 

Closer To Home (i'm Your Captain) Chords & Tabs

Grand Funk Railroad Chords & Tabs

Version: 1 Type: Tab 0 ratings
1 star 2 stars 3 stars 4 stars 5 stars
comments

Closer To Home (i'm Your Captain) Tab

   
#----------------------------------PLEASE NOTE---------------------------------#
#This file is the author's own work and represents their interpretation of the #
#song. You may only use this file for private study, scholarship, or research. #
#------------------------------------------------------------------------------#

Closer To Home (I'm Your Captain)
Grand Funk Railroad
From the Album-"Closer To Home"
1970
Written by Mark Farner
Tabbed by Ray Scheidler



Intro (Play 4 Times)


E----------------------------------------------
B---------------------------------------0------
G-------7-------5-------4----0--0---2----------
D---0-------0-------0--------------------------
A----------------------------------------------
E----------------------------------------------


Riff 1 (Twice)

  D5
E----------------------------------------------
B----------------------------------------------
G----------------------------------------------
D----------5---3---2---------------------------
A--5---5---------------5---5---3-----------3---
E----------------------------------5---5-------

  C5
E----------------------------------------------
B----------------------------------------------
G----------------------------------------------
D----------5---3---2---------------------------
A--5---5---------------5---5---3-----------3---
E----------------------------------5---5-------


Main Riff Throughout (Play 4 Times)

   D                        G
E--2---2---2---0---2---3----3---3---3----------
B--3---3---3---3---3---3-----------------------
G--2---2---2---2---2---2-----------------------
D----------------------------------------------
A---------------------------2---2---2----------
E---------------------------3---3---3----------


[ Tab from: http://www.guitartabs.cc/tabs/g/grand_funk_railroad/closer_to_home_im_your_captain_tab.html ]
E----------------------------------------------
B----------------------------------------------
G------12--10----------------------------------
D--12----------14--12--------------------------
A----------------------15--12--10--------------
E----------------------------------13--12--10--


(Riff 1 Twice)

(Main Riff 4 Times)




Interlude: D C  D C



Outro Riff #2 (Play 3 Times)


  D                         C
E-----------------------------------------------
B-----------------------------------------------
G---------------------------------------0-------
D---------------0-------------------0-4---4-0---
A-0----0--4-------4---2--2--2-3-2-0-----------2-
E-----------------------------------------------
  


(Then below)


  D                         C    D C   C C C C
E-----------------------------------------------
B-----------------------------------------------
G---------------0----------(2)------------------
D------0--4-------4---2--2----------------------
A-0---------------------------------------------
E-----------------------------------------------
 


   D
E-----7--5--------------5--5-----7-----5--------
B-----------7--5-----7--------7-----7-----------
G--7--------------7-----------------------7-----
D-----------------------------------------------
A-----------------------------------------------
E-----------------------------------------------


   C
E--5--3--------3--3--3---------5--3-------------
B--------5--------------5------------5----------
G-----------5--------------5------------5--5----
D-----------------------------------------------
A-----------------------------------------------
E-----------------------------------------------


Outro: Riff #2 Ad Nauseum
Comments