Grand Funk Railroad - Closer To Home Chords & Tabs

 

Closer To Home Chords & Tabs

Grand Funk Railroad Chords & Tabs

Version: 1 Type: Bass Tab 0 ratings
1 star 2 stars 3 stars 4 stars 5 stars
comments

Closer To Home Bass Tab

   
==================================
Closer to Home-Grand Funk Railroad
==================================

/- SLIDE UP \- SLIDE

INTRO
====================
G<>-------<>
D<>-----5-<>
A<>-5/7---<> 4X
E<>-------<>

G<>-----------------------<>
D<>-----5-3-2-------------<>
A<>-5-5-------5-5-3-0-0-3-<> 6X
E<>-----------------------<>

G<>------------------------------<>
D<>-----5-3-2--------------------<>
A<>-5-5-------5-5-3-0-0-3-5-5/17-<> 1X
E<>------------------------------<>

G<>-----<>
D<>-0-0-<>
A<>-----<> 9X
E<>-----<>

=======================
CHORUS

G---------------------------------------<>
D---------------------------------------<>
A-5---5-3-3-3-------5---5---5-3-3-------<> A WHOLE LOT
E---5---------3-4-5---5---5-------3-4-5-<>

=======================
SOLO

G--------------------------------------------<>
D-----6-5-3-0--------------6-5-3-0-----------<>
A-5-----------0--3-2-0/5-----------0-3-2-0/5-<> 1X
E---5--------------------5-------------------<>

==============================================
WHEN HE SAYS- AM I IN MY CABIN DREAMING....

G<>----------------------------------------------7--------------<>
D<>--------------------------------------------7---7------------<>
A<>--5-5---1---1-1-3-5---5-5---1---1-1-3-5---5-------1---1-1-3--<>
E<>5-----5---1---------5-----5---1---------5-----------1--------<>
[ Tab from: http://www.guitartabs.cc/tabs/g/grand_funk_railroad/closer_to_home_btab.html ]
G-----------------------2---2---2---2---2---2---<>
D-3---3---3---3---3---3---2---2---2---2---2-----<>
A---3---3---3---3---3-------------------------5-<>
E-----------------------------------------------<>

REPEAT THIS TWICE
=======================
G<>---------------------<>
D<>---5-3-2-------------<>
A<>-5-------5-5-3-0-0-3-<> 6X
E<>---------------------<>

G<>----------------------------------------<>
D<>-----5-3-2------------------------------<>
A<>-5-5-------5-5-3-0-0-3-5-5/17-17-17-17/5<> 1X
E<>----------------------------------------<>

======
CHORUS
======

ENDING

G<>-------------------------7-------------------------------------|
D<>-----------------------7---7-----------------------------------|
A<>-5-5-3-------0-1-2-3-5-------5---3---3-------0-1-2-3-5---5---3-|
E<>-------2-3-4-------------------3---3---2-3-4-----------5---5---|

----------------------7-----------------------------<>
--------------------7---7---------------------------<>
--3-------0-1-2-3-5-------5---3---3-------0-1-2-3-5-<>
3---2-3-4-------------------3---3---2-3-4-----------<>

G<>---7----------------------------<>
D<>-7---7--------------------------<>
A<>-------5---3---3-------0-1-2-3-5<>4X(I THINK)
E<>---------3---3---2-3-4----------<>

G<>-------------------------------------------------------<>
D<>-------------------------------------------------------<>
A<>-5-5---5-5---5-5---5---5---3-3---3-3---3-------0-1-2-3-<> KEEP DOING TIL END
E<>-----5-----5-----5---5---5-----3-----3---2-3-4---------<>

when necessary throw this in. you'll have to listen.

G<>-----------------------7---<>
D<>---------------------7---7-<>
A<>-5-5---5-5---5-5---5-------<>
E<>-----5-----5-----5---------<>
Comments