Grand Avenue - Falling Chords & Tabs

 

Falling Chords & Tabs

Grand Avenue Chords & Tabs

Version: 1 Type: Tab

Falling Tab

Falling by Grand avenue


Intro with distortion
Verse clean

[ Tab from: http://www.guitartabs.cc/tabs/g/grand_avenue/falling_tab.html ]
 Verse
e|-------------------------------------------------------------------------------------|
B|-------------------------------------------------------------------------------------|
G|---0------0-------0-----5------5------5----------------------------------------------|
D|-----0------0-------0-----5------5------5-----------------------------12-------------|
A|----------------------------3------3-------8--10--8--12--8--8--10--8------12--10-----|
E|-------3------3----------------------------------------------------------------------|

  Chorus
e|---------------------------------------------------|
B|---------------------------------------------------|
G|---------------------------------------------------|
D|---------------------------------------------------|
A|---12-----------8---------15---14--15--14----------|
E|---------------------------------------------------|