Graham Gouldman - Loves Not For Me Chords & Tabs

 

Loves Not For Me Chords & Tabs

Graham Gouldman Chords & Tabs

Version: 1 Type: Tab 0 ratings
1 star 2 stars 3 stars 4 stars 5 stars
comments

Loves Not For Me Tab

   
Capo 3

Chords Used :
Bm    : x24432
Em    : 022000
A     : x02220
D     : xx0232
Em/C# : x42000
F#    : 244322
Bm/F# : 224432
B     : x24442
Am*   : x02030


Intro :
   Bm (x24432)

---------2--0-------------2--0-------------2--0-----------0--2--|
---------3--3-------------3--3-------------3--3--------3--------|
----------------------------------------------------------------|
-----4----------------4----------------4------------------------|
--2----------------2----------------2---------------------------|
----------------------------------------------------------------|

  Bm* (3x4432)

---------2--0-------------2--0-------------2--0-----------2-----|
---------3--3-------------3--3-------------3--3-----------3-----|
----------------------------------------------------------------|
-----4----------------4----------------4--------------4---------|
----------------------------------------------------------------|
--3----------------3---------------3---------------3------------|



Verse 1


   Bm                Em
         I've always run away
   A                       D
         From things that tie me down
   Em/C#             F#
         My life I love
                                 Bm Em A D
         But love's not for me



Verse 2
[ Tab from: http://www.guitartabs.cc/tabs/g/graham_gouldman/loves_not_for_me_tab.html ]
   Bm              Em
         I see my goal ahead
   A                   D
         With nothing in the way
   Em/C#                 F#
         If love should come
                                 Bm Bm/F#
         Then I'll run away



      B                Em               A
          I've always been the type of man
                     A             B
          Who's dedicated to his cause
                       Em           A
          And it's a lonely road I run
                          A               D
          But I'll stay faithful to my course
                        F#
          There's only one direction


intro
During the accordeon solo, just play the verse's chords

 B                       Em                   A
          There comes a time when you must choose
                     A                  B
          About the path you're gonna take
                        Em              A
          And you must take it win or lose
                       A               D
          And if you lose it's your mistake
                        F#
          There's only one direction


   Bm                 Em
         So when the race is won
   A                            D
          And there's nothing left to do
   Em/C#         F#                 Bm Bm/F#
         Alone again but where are you
    Em/C#         F#                 Bm  Em Am* D
         Alone again but where are you
Comments