Govt Mule - Drivin Rain Chords & Tabs

 

Drivin Rain Chords & Tabs

Govt Mule Chords & Tabs

Version: 1 Type: Tab 0 ratings
1 star 2 stars 3 stars 4 stars 5 stars
comments

Drivin Rain Tab

Drivin Rain
Album(s): The Deep End Vol. 2 Bonus Disc
Lyrics Written By: Warren Haynes
Transcribed By: Jo Jo Mellon(coollarryf@wmconnect.com)


Drivin Rain 

intro
---------------------------------------------
---------------------------------------------
------7-7-----------7------9-----------------
9-----7-7--9p7------7------9-----------------
9-7h9----------7h9----9h11-------------------
7--------------------------------------------
[ Tab from: http://www.guitartabs.cc/tabs/g/govt_mule/drivin_rain_tab.html ]
verse
---------------------------------------------
-----------------9----7----------------------
-----------------9----7----------------------
-----------------9----7----------------------
9-9-9-9-9-9-9-9--7----5----------------------
7-7-7-7-7-7-7-7------------------------------
pm. . . . . . .

Chorus(only first half)
---------------------------------------------
---------------------------------------------
------7----------7---------------------------
-9-9--7-7---9-9--7--7------------------------
-9-9--5-7---9-9--5--7------------------------
-7-7----5---7-7-----5------------------------


Comments