Govt Mule - Banks Of The Deep End Chords & Tabs

 

Banks Of The Deep End Chords & Tabs

Govt Mule Chords & Tabs

Version: 1 Type: Tab 1 rating
1 star 2 stars 3 stars 4 stars 5 stars
comments

Banks Of The Deep End Tab

Song title: Banks of the Deep End
Artist: Govt Mule
Album: The Deep End Vol 1
Transcribed by: coollarryf@wmconnect.com

Intro
----4----7------2-------------------------
----4----7------2-------------------------
----4----8------3-------------------------
----6----9------4-------------------------
----6----9------4-------------------------
-/4-----7-----2---------------------------
intro solo and all other solos besides the
bridge are just a G#m Pentatonic scale

444444 4th fret
------
-666--
7---77

Verse
[ Tab from: http://www.guitartabs.cc/tabs/g/govt_mule/banks_of_the_deep_end_tab.html ]
---4-------------2------4|--4------7---2---
---4-------------2------5|--4------7---2---
---4-------------3------6|--4------8---3---
---6-----6-------4------6|--6---6--9---4---
---6-------------4--4-4-4|--6------9---4---
-44---44----2-2----------|44--44--/7---2---

Chorus
0--0-----2---0-----4---0-------------------
0--0--4--2---0--4--5---0--4----------------
1--1--4--3---1--4--6---1--4----------------
2--2--4--4---2--4--6---2--4--4-5-----------
2--2--2--4---2--2--4---2--2--4-5-----------
0--0-----2---0---------0-----2-3-----------


Warren also throws in a lot of small licks
and changes up the voiciing so keep that in
mind.
Comments