Gotye - Somebody That I Used To Know Chords & Tabs

 

Gotye Chords & Tabs

Version: 1 Type: Tab 0 ratings
1 star 2 stars 3 stars 4 stars 5 stars
comments

Somebody That I Used To Know Tab

   
Song: Somebody That I Used to Know
Artist: Gotye (feat. Kimbra)

Submitted by Jimmy Lynch

Verse Rhythm

D	C

e ----------------------------|
B ----------------------------|
G ----------------------------|
D -----x----x-x---x----x-x----|
A ----12----x-x---10---x-x----|
E ----10----x-x---8----x-x----|

..or you can play..

e ----------------------------|
B ----------------------------|
G ----x----x-x----x----x-x----|
D ----7----x-x----5----x-x----|
A ----5----x-x----3----x-x----|
E ----------------------------|

Melody Fill (0:04)

e ----------------------------|
B -------------------13-------|
G --------12-12----14--14-12--|
D --12-12--------15-----------|
A ----------------------------|
E ----------------------------|

e ----------------------------|
B ----------------------------|
G ----------------------------|
D --15-15--14-14---12-12--10--|
A ----------------------------|
E ----------------------------|

e ----------------------------|
B -------------------13-------|
G --------12-12----14--14-12--|
D --12-12--------15-----------|
A ----------------------------|
E ----------------------------|

e -------------------------0--|
B ------------------------15--|
G ------------------------14--|
D --12-12----14--12-12----12--|
A ----------------------------|
E ----------------------------|

Fill (0:48)

e ----------------------------|
B --------------13------------|
G --14-------------14--12-----|
D ------------------------12--|
A ----------------------------|
E ----------------------------|

e ----------------------------|
B ------------13--------------|
G --------14-----14--12-------|
D --14-12--------------12-12--|
A ----------------------------|
E ----------------------------|

Fill (1:03)
[ Tab from: http://www.guitartabs.cc/tabs/g/gotye/somebody_that_i_used_to_know_tab.html ]
e --------------------------------------------|
B --------------------------------------------|
G --14~--------14~-------14~-12~-12~\10---14~-|
D -----14b\12~----14b\10~--------------12-----|
A --------------------------------------------|
E --------------------------------------------|

Chorus Rhythm (1:33)

D	C	Bb	C

e ----------------------------------------|
B ----------------------------------------|
G ----------------------------------------|
D ---x--x--x--x--x--x--x--x--x--x---x--x--|
A --12--x--x--10-x--x--8--x--x--10--x--x--|
E --10--x--x--8--x--x--6--x--x--8---x--x--|

..or you can play..

e --------------------------------|
B --------------------------------|
G --x--x--x--x--x--x--x--x--x--x--|
D --7--x--x--5--x--x--3--x--x--5--|
A --5--x--x--3--x--x--1--x--x--3--|
E --------------------------------|

Chorus Fills

e ------------------|----------------------------|
B ----13------------|-------13-------------------|
G --14--12-14-------|--12-14--12-14--12---12-14--|
D ------------15----|------------------12--------|
A --------------15--|----------------------------|
E ------------------|----------------------------|

Post Chorus Fill (2:18)

e ----------------------------|
B ------------13--------------|
G --14-----------14--12-------|
D ----------------------12----|
A ----------------------------|
E ----------------------------|

e ----------------------------|
B ------------13--------------|
G --------14-----14--12-------|
D --14-12--------------12-12--|
A ----------------------------|
E ----------------------------|

Fill (2:47)

e ---------------|-----------|--------------------|
B ---------------|--13-------|----------13--------|
G --------14-12--|----14-12--|----14-12----14-12--|
D --14-12--------|-----------|--14----------------|
A ---------------|-----------|--------------------|
E ---------------|-----------|--------------------|

Hope this is helpful :) Also check out my video tutorials for this song on YouTube.

Please email any questions or feedback to jimmy.lynch@live.com.au
Comments