Gotye - Somebody That I Used To Know Chords & Tabs

 

Somebody That I Used To Know Chords & Tabs

Gotye Chords & Tabs

Version: 3 Type: Bass Tab 0 ratings
1 star 2 stars 3 stars 4 stars 5 stars
comments

Somebody That I Used To Know Bass Tab

   
Bass tab done from ear 
Goes well with the YouTube video
Standard tuning E,A,D,G.


GotyeVerse:
G|-------------------------------------------|
D|-------------------------------------------|  Repeat until 1:33
A|--5--5-3--3-5--5-3--3-5--5-3--3-5--5-3--3--|
E|-------------------------------------------|

[ Tab from: http://www.guitartabs.cc/tabs/g/gotye/somebody_that_i_used_to_know_btab_ver_3.html ]
Chorus:
G|-------------------------------------------|
D|-------------------------------------------|  Repeat until 2:18
A|--5--5-3--3-1--1-3--3-5--5-3--3-1--1-3--3--|
E|-------------------------------------------|


KimbraVerse:
G|-------------------------------------------|
D|-------------------------------------------|  Repeat until 3:00
A|--5--5-3--3-5--5-3--3-5--5-3--3-5--5-3--3--|
E|-------------------------------------------|


Chorus:
G|-------------------------------------------|
D|-------------------------------------------|  Repeat until song ends
A|--5--5-3--3-1--1-3--3-5--5-3--3-1--1-3--3--|
E|-------------------------------------------|
Comments